Scorpions - Rock You Like A Hurricane Chords & Tabs

 

Rock You Like A Hurricane Chords & Tabs

Scorpions Chords & Tabs

Version: 3 Type: Tab 1 rating
1 star 2 stars 3 stars 4 stars 5 stars
comments

Rock You Like A Hurricane Tab

   
Transcribed by Rodney Echum, walk_become@hotmail.com

      FB  [------N.H.------------]                                
E------13---------------------------------------------------------------------
B------16-------------------------------------13h16p13h16----13h16p13h16----16
G----------15br(15)p13-15br(15)p13-15bF-------------------15-------------15---
D-----------------------------------------------------------------------------
A-----------------------------------------------------------------------------
E-----------------------------------------------------------------------------
[ Tab from: http://www.guitartabs.cc/tabs/s/scorpions/rock_you_like_a_hurricane_tab_ver_3.html ]
E-----------------------------------------------------------------------------
B-13h16p13------13h16p13h16-----13h16p13--------------------------------------
G-----------15---------------15b----------15/---XX//--------------------------
D-----------------------------------------------XX//----------------1212-1414-
A--------------------------------------------------------------1414-----------
E-----------------------------------------------------------------------------
                                                      N.H.
E-----------------------------------1515--18bfN.H.----------------------------
B-------------------------1515-1717-------------------------------------------
G1212-1414-1616-1414-1616------------------------------17bF--R(17)------15-13-
D-----------------------------------------------------------------------------
A-----------------------------------------------------------------------------
E-----------------------------------------------------------------------------
                                                                      [- -N.H.
E-----------------------------------------------------------------------------
B------------------15br(15)p13-----15br(15)p13-----15br(15)p13----------------
G-15br(15)p13------15br(15)p13-----15br(15)p13-----15br(15)p13-------0--2--4--
D--------------15--------------15--------------15--------------15-------------
A-----------------------------------------------------------------------------
E-----------------------------------------------------------------------------
- - - ]
E-----------------------------------------------------------------------------
B---------------5-8p5----7-10p7----9-12p9----12-15p12----14-17p14----16-19p16-
G-5--7b------/7-------/9--------/11-------/14---------/16---------/18---------
D-----------------------------------------------------------------------------
A-----------------------------------------------------------------------------
E-----------------------------------------------------------------------------

E---------------------------------22------------------------------------------
B----17-20p17---19-22p19-----22bf-----22bf-----22bf-r-------------------------
G-/19---------/21----------------------------------------------------------19-
D------------------------------------------------------------------19-21-22---
A----------------------------------------------------------19-21-22-----------
E-----------------------------------------------------------------------------

E----------------22--22bf----------12----15----18--------------------19-20-22-
B--19-20-22--22bf------------------12----15------------------19-20-22---------
G21--------------------------------------------------------21-----------------
D-----------------------------------------------------------------------------
A-----------------------------------------------------------------------------
E-----------------------------------------------------------------------------

E--22bF-----r(22)bF---22bF (22)r bF-------22-20-19--20p19--19-20-19h20p19-----
B---------------------------------------21--------22-----22--------------22-20
G-----------------------------------------------------------------------------
D-----------------------------------------------------------------------------
A-----------------------------------------------------------------------------
E-----------------------------------------------------------------------------

E-----------------------------------------------------------------------------
B-----------------------------------------------------------------------------
G---1717p15-------15-17p15-17p15-----15-17-17p151715------------0-2-2f(2)p0---
D----------17-1517--------------17-15----------------1717p15---2--------------
A-----------------------------------------------------------------------------
E-----------------------------------------------------------------------------
          [-  -N.H.--]
E-----------------------------------------------------------------------------
B-----------------------7slowB------------------------------------------------
G-2p0----0--2--4--5--7--7slowB------------------------------------------------
D------2----------------------------------------------------------------------
A-----------------------------------------------------------------------------
E-----------------------------------------------------------------------------
Comments