Scorpions - Rock You Like A Hurricane Chords & Tabs

 

Rock You Like A Hurricane Chords & Tabs

Scorpions Chords & Tabs

Version: 5 Type: Bass Tab 0 ratings
1 star 2 stars 3 stars 4 stars 5 stars
comments

Rock You Like A Hurricane Bass Tab

   
The Scorpions - Rock You Like a Hurricane

Intro (with bass drum)
G|-------------------|
D|-------------------|
A|-------------------|
E|-0-0-0-0-0-0-0-0-0-|

Guitar Solo 1 (4x)
G|---------------------|
D|---------------------|
A|---------------3-5-5-|
E|-0-0-0-3-3-5-5-------|

Verse 1 (2x)
G|---------------------------------|
D|-------2-2-2-2-2-------2-2-------|
A|-3-3-3-----------3-3-3-----5-5-5-|
E|---------------------------------|

G|---------------------------------|
D|-------2-2-2-2-2-----------------|
A|-3-3-3-----------3-3-3-5-5-5-5-5-|
E|---------------------------------|

Chorus 1 (4x)
G|---------------------|
D|---------------------|
A|---------------3-5-5-|
E|-0-0-0-3-3-5-5-------|

Verse 2 (2x)
G|---------------------------------|
D|-------2-2-2-2-2-------2-2-------|
A|-3-3-3-----------3-3-3-----5-5-5-|
E|---------------------------------|

G|---------------------------------|
D|-------2-2-2-2-2-----------------|
A|-3-3-3-----------3-3-3-5-5-5-5-5-|
E|---------------------------------|

Chorus 2a (4x)
G|---------------------|
D|---------------------|
A|---------------3-5-5-|
E|-0-0-0-3-3-5-5-------|
[ Tab from: http://www.guitartabs.cc/tabs/s/scorpions/rock_you_like_a_hurricane_btab_ver_5.html ]
Chorus 2b (4x)
G|-----------------------|
D|-2---------------------|
A|-----------------3-5-5-|
E|---0-0-3-3-5-3-5-------|

Bridge
G|-------------|
D|-2-2~--------|
A|------0~-----|
E|-------------|

Guitar Solo 2a (4x)
G|---------------------|
D|---------------------|
A|---------------3-5-5-|
E|-0-0-0-3-3-5-5-------|

Guitar Solo 2b (3x)       
G|-----------------------|
D|-2---------------------|
A|-----------------3-5-5-|
E|---0-0-3-3-5-3-5-------|
   (1x)
G|----------------------------|
D|-2---------------------2----|
A|-----------------3-5-5------|
E|---0-0-3-3-5-3-5---------0~-|

Verse 3 (2x)
G|---------------------------------|
D|-------2-2-2-2-2-------2-2-------|
A|-3-3-3-----------3-3-3-----5-5-5-|
E|---------------------------------|

G|---------------------------------|
D|-------2-2-2-2-2-----------------|
A|-3-3-3-----------3-3-3-5-5-5-5-5-|
E|---------------------------------|

Chorus 3a (43x)
G|---------------------|
D|---------------------|
A|---------------3-5-5-|
E|-0-0-0-3-3-5-5-------|

Chorus 3b (5x)
G|-----------------------|
D|-2---------------------|
A|-----------------3-5-5-|
E|---0-0-3-3-5-3-5-------|

Outro
G|-------|
D|-2-2-2-|
A|-------|
E|-------|
Comments