Scorpions - Rock You Like A Hurricane Chords & Tabs

 

Rock You Like A Hurricane Chords & Tabs

Scorpions Chords & Tabs

Version: 4 Type: Bass Tab 0 ratings
1 star 2 stars 3 stars 4 stars 5 stars
comments

Rock You Like A Hurricane Bass Tab

Scorpions -Rock you like a hurricane
BY: andersdanboltajer puppetz4ever@hotmail.com

All the other tabs 4 this song is crap... this one's the right one.

Riff 1:
|---------------------------------------------------------------------|
|---------------------------------------------------------------------|
|---------------------------------------------------------------------|
|0-------0--------0-------0-------0--------0---------0-------0--------|

Riff2:
|---------------------|
|---------------------|
|7-7-7-----------3-5-5|
|-------3-3--55-------|
[ Tab from: http://www.guitartabs.cc/tabs/s/scorpions/rock_you_like_a_hurricane_btab_ver_4.html ]
Riff3:
|----------------------------|
|----------------------------|
|3-3-3--7-7-7-7--3-3-3--5-5-5|
|----------------------------|

Riff4:
|----------------------------|
|----------------------------|
|3---7-----3-----7-----5----5|
|----------------------------|

Riff5:
|-----|
|-----|
|7-7-7|
|-----|

Riff1 x1  In with drums
Riff2 x4 under the solo
Silence on the 1st half on the verse
Riff3 x4 on the 2nd half (The bitch...)
Riff2 x4 on the chorus
Silence on the 1st half on the verse
Riff3 x2 on the 2nd half (The bitch...)
Riff4 x2
Riff2 x8 on the chorus
Riff2 x8 on the solo
Silence on the 1st half on the verse
Riff3 x2 on the 2nd half (The bitch...)
Riff4 x2
Riff2 x8 on the chorus
Riff5 x1
Comments