Scorpions - Robot Man Chords & Tabs

 

Robot Man Chords & Tabs

Scorpions Chords & Tabs

Version: 2 Type: Bass Tab 0 ratings
1 star 2 stars 3 stars 4 stars 5 stars
comments

Robot Man Bass Tab

                                 SCORPIONS



crossfire from "love at first sting"
[ Tab from: http://www.guitartabs.cc/tabs/s/scorpions/robot_man_btab_ver_2.html ]
Intro/chorus/ending:
G|------------------------------------|
D|-2-----0-----2-----0-----2-----0----|
A|----3-----2-----3-----2-----3-----2-|
E|------------------------------------|

Verse:
G|------------------------------------------------|
D|-2--------0--2--------0-----2--0-----2--------0-|
A|----2-----------2--------2--------3-----2-------|
E|-------3-----------3-----------------------3----|
Comments