Scorpions - Rhythm Of Love Chords & Tabs

 

Rhythm Of Love Chords & Tabs

Scorpions Chords & Tabs

Version: 2 Type: Tab 0 ratings
1 star 2 stars 3 stars 4 stars 5 stars
comments

Rhythm Of Love Tab

Scorpions
Rhythm Of Love   
Album: Savage Amusement
Tuning: Standard
Tabbed by: Lea

Intro
|---------|---------|----------|
|---------|---------|----------|
|-------5-|-3-------|----------|
|-5-----5-|-3-3-x-x-|-5-x-x-3--| x2
|-5-x-x-3-|-1-3-x-x-|-5-x-x-3--|
|-3-x-x---|---1-x-x-|-3-x-x-1--|

Interlude

Jabs      
|------|------------|---------|----------------|------------|---------|-----------------|
|------|------------|---------|----------------|------------|---------|-----------------|
|------|------------|---------|----------------|------------|---------|-----------10^12-|
|------|-8-------10-|-h12-p10-|-12-p10-p8------|-8-------10-|-h12-p10-|-12-p10-p8-------|
|-8-10-|---8-10-----|---------|-----------8-10-|---8-10-----|---------|-----------------|
|------|------------|---------|----------------|------------|---------|-----------------|

Schenker w/acoustic
|------|-3----------|-3-------|-1--------------|-3----------|-3-------|-1---------------|
|------|-3----------|-4-------|-1--------------|-3----------|-4-------|-1---------------|
|------|-3----------|-5-------|-2--------------|-3----------|-5-------|-2---------------|
|------|-5----------|-5-------|-3--------------|-5----------|-5-------|-3---------------|
|------|-5----------|-3-------|-3--------------|-5----------|-3-------|-3---------------|
|------|-3----------|---------|-1--------------|-3----------|---------|-1---------------|

Verse

Jabs
|---------|---------|---------|---------|
|---------|---------|---------|---------|
|---------|---------|---------|---------| 
|---------|---------|---------|---------|
|---------|---------|---------|---------|
|-3-3-3-3-|-3-3-3-3-|-3-3-3-3-|-3-3-3-3-|

Schenker w/acoustic
|-3-------|-3-------|-1-------|-3-------|
|-3-------|-4-------|-1-------|-3-------|
|-3-------|-5-------|-2-------|-3-------|
|-5-------|-5-------|-3-------|-5-------|
|-5-------|-3-------|-3-------|-5-------|
|-3-------|---------|-1-------|-3-------|

Bridge

|---------|---------|---|---------|---------|---|
|---------|---------|---|---------|---------|---|
|-3-------|-8-------|---|-3-------|-8-------|---|
|-3-3-x-x-|-8-5-x-x-|-3-|-3-3-x-x-|-8-5-x-x-|-3-|
|-1-3-x-x-|-6-5-x-x-|-3-|-1-3-x-x-|-6-5-x-x-|-3-|
|---1-x-x-|---3-x-x-|-1-|---1-x-x-|---3-x-x-|-1-|

Jabs
|---------|---------|---------|---------|
|---------|---------|---------|---------|
|---------|---------|---------|---------| 
|---------|---------|---------|---------|
|---------|---------|---------|---------|
|-3-3-3-3-|-3-3-3-3-|-3-3-3-3-|-3-3-3-3-|

Schenker w/acoustic
|-3-------|-3-------|-1-------|-3-------|
|-3-------|-4-------|-1-------|-3-------|
|-3-------|-5-------|-2-------|-3-------|
|-5-------|-5-------|-3-------|-5-------|
|-5-------|-3-------|-3-------|-5-------|
|-3-------|---------|-1-------|-3-------|

Chorus
|-----------|-----|-----------|-----|-----------|-----|-----------|-----|
|-----------|-----|-----------|-----|-----------|-----|-----------|-----|
|-------5-3-|-8---|-------5-3-|-8---|-------5-3-|-8---|-------5-3-|-8---|
|-5-5-5-5-3-|-8-3-|-5-5-5-5-3-|-8-3-|-5-5-5-5-3-|-8-3-|-5-5-5-5-3-|-8-3-|
|-5-5-5-3-1-|-6-3-|-5-5-5-3-1-|-6-3-|-5-5-5-3-1-|-6-3-|-5-5-5-3-1-|-6-3-|
|-3-3-3-----|---1-|-3-3-3-----|---1-|-3-3-3-----|---1-|-3-3-3-----|---1-|

Interlude
[ Tab from: http://www.guitartabs.cc/tabs/s/scorpions/rhythm_of_love_tab_ver_2.html ]
Jabs      
|------|------------|---------|----------------|------------|---------|-----------------|
|------|------------|---------|----------------|------------|---------|-----------------|
|------|------------|---------|----------------|------------|---------|-----------10^12-|
|------|-8-------10-|-h12-p10-|-12-p10-p8------|-8-------10-|-h12-p10-|-12-p10-p8-------|
|-8-10-|---8-10-----|---------|-----------8-10-|---8-10-----|---------|-----------------|
|------|------------|---------|----------------|------------|---------|-----------------|

Schenker w/acoustic
|------|-3----------|-3-------|-1--------------|-3----------|-3-------|-1---------------|
|------|-3----------|-4-------|-1--------------|-3----------|-4-------|-1---------------|
|------|-3----------|-5-------|-2--------------|-3----------|-5-------|-2---------------|
|------|-5----------|-5-------|-3--------------|-5----------|-5-------|-3---------------|
|------|-5----------|-3-------|-3--------------|-5----------|-3-------|-3---------------|
|------|-3----------|---------|-1--------------|-3----------|---------|-1---------------|

Verse

Jabs
|---------|---------|---------|---------|
|---------|---------|---------|---------|
|---------|---------|---------|---------| 
|---------|---------|---------|---------|
|---------|---------|---------|---------|
|-3-3-3-3-|-3-3-3-3-|-3-3-3-3-|-3-3-3-3-|

Schenker w/acoustic
|-3-------|-3-------|-1-------|-3-------|
|-3-------|-4-------|-1-------|-3-------|
|-3-------|-5-------|-2-------|-3-------|
|-5-------|-5-------|-3-------|-5-------|
|-5-------|-3-------|-3-------|-5-------|
|-3-------|---------|-1-------|-3-------|

Bridge

|---------|---------|---|---------|---------|---|
|---------|---------|---|---------|---------|---|
|-5-------|-8-------|---|-5-------|-8-------|---|
|-5-5-x-x-|-8-5-x-x-|-3-|-5-5-x-x-|-8-5-x-x-|-3-|
|-1-5-x-x-|-6-5-x-x-|-3-|-1-5-x-x-|-6-5-x-x-|-3-|
|---1-x-x-|---3-x-x-|-1-|---1-x-x-|---3-x-x-|-1-|

Jabs
|---------|---------|---------|---------|
|---------|---------|---------|---------|
|---------|---------|---------|---------| 
|---------|---------|---------|---------|
|---------|---------|---------|---------|
|-3-3-3-3-|-3-3-3-3-|-3-3-3-3-|-3-3-3-3-|

Schenker w/acoustic
|-3-------|-3-------|-1-------|-3-------|
|-3-------|-4-------|-1-------|-3-------|
|-3-------|-5-------|-2-------|-3-------|
|-5-------|-5-------|-3-------|-5-------|
|-5-------|-3-------|-3-------|-5-------|
|-3-------|---------|-1-------|-3-------|

Chorus
|---------|---|-----|---------|---|-----|---------|---|-----|---------|---|-----|
|---------|---|-----|---------|---|-----|---------|---|-----|---------|---|-----|
|-------3-|---|-8---|-------3-|---|-8---|-------3-|---|-8---|-------3-|---|-8---|
|-5-5-5-3-|-3-|-8-3-|-5-5-5-3-|-3-|-8-3-|-5-5-5-3-|-3-|-8-3-|-5-5-5-3-|-3-|-8-3-|
|-5-5-5-1-|-3-|-6-3-|-5-5-5-1-|-3-|-6-3-|-5-5-5-1-|-3-|-6-3-|-5-5-5-1-|-3-|-6-3-|
|-3-3-3---|-1-|---1-|-3-3-3---|-1-|---1-|-3-3-3---|-1-|---1-|-3-3-3---|-1-|---1-|

Solo
|-----------|-------|-------|
|-----------|-------|-------|
|---5-3---5-|-3-----|---3---|
|-5-5-3-3-5-|-3-3-5-|-5-3-3-| x2
|-5-3-1-3-3-|-1-3-5-|-5-1-3-|
|-3-----1---|---1-3-|-3---1-|

Chorus
|---------|---|-----|---------|---|-----|---------|---|-----|---------|---|-----|
|---------|---|-----|---------|---|-----|---------|---|-----|---------|---|-----|
|-------3-|---|-8---|-------3-|---|-8---|-------3-|---|-8---|-------3-|---|-8---|
|-5-5-5-3-|-3-|-8-3-|-5-5-5-3-|-3-|-8-3-|-5-5-5-3-|-3-|-8-3-|-5-5-5-3-|-3-|-8-3-|
|-5-5-5-1-|-3-|-6-3-|-5-5-5-1-|-3-|-6-3-|-5-5-5-1-|-3-|-6-3-|-5-5-5-1-|-3-|-6-3-|
|-3-3-3---|-1-|---1-|-3-3-3---|-1-|---1-|-3-3-3---|-1-|---1-|-3-3-3---|-1-|---1-| 
Repeat till end

Outro
|-3-------|-3-------|-1-------|-3-------|
|-3-------|-4-------|-1-------|-3-------|
|-3-------|-5-------|-2-------|-3-------|
|-5-------|-5-------|-3-------|-5-------|
|-5-------|-3-------|-3-------|-5-------|
|-3-------|---------|-1-------|-3-------|
Comments