Scorpions - No One Like You Chords & Tabs

 

No One Like You Chords & Tabs

Scorpions Chords & Tabs

Version: 4 Type: Tab 0 ratings
1 star 2 stars 3 stars 4 stars 5 stars
comments

No One Like You Tab

Artist - Scorpions
Title - No One Like You
Album - Best of Rockers N' Ballads


I was tired of seeing incomplete tabs, or incorrect tabs so i sat down for about a few
days and figured it out.  So i hope all you Scorpion fans out there appreciate it.  


Rythm Guitar - Intro & Chorus

e|------------------------------------------------------------------------------|
B|------------------------------------------------------------------------------|
G|------------------------------------------------------------------------------|
D|-7-7----3-3--5-5--7-7---3-3--5-5--7-7---3-3--5-5--7--5------------------------|
A|-7-7----3-3--5-5--7-7---3-3--5-5--7-7---3-3--5-5--7--5---(play only once)-----|
E|-5-5----1-1--3-3--5-5---1-1--3-3--5-5---1-1--3-3--5--3-0-3-0-3-0--------------|

Solo Guitar - Chorus

e|----------------|
B|--15b-r-p13~~~--|  The same thing is done in the chorus the second time sung
G|----------------|    just cant figure the rest of it out thou sry
D|----------------|
A|----------------|
E|----------------|
									   

Solo Guitar - First Solo

e|--15~~~----------------------------------------------------------15-----------|
B|-------------------------------------------------------------15b-----15~~~----|
G|-------14--16--16b-r-14/12--14p12---------14-16-14br-14s12--------------------|
D|----------------------------------14~~~---------------------------------------|
A|------------------------------------------------------------------------------|
E|------------------------------------------------------------------------------|

e|--------------17---------20--20b~~~--17--20--19p17---19p17-------17-----------|
B|------17-20b------20p17-------------------------------------20-------20b~~~---|
G|--/17-------------------------------------------------------------------------|
D|------------------------------------------------------------------------------|
A|------------------------------------------------------------------------------|
E|------------------------------------------------------------------------------|

e|------------------------------------------------------------------------------|
B|--19br--17-----19b~~~~--------------------------------------------------------|
G|------------19----------------------------------------------------------------|
D|------------------------------------------------------------------------------|
A|------------------------------------------------------------------------------|
E|------------------------------------------------------------------------------|

e|15b----------------------------------------------------------15----------------|
B|---------------------------------------------------------15b----15~~~----------|
G|----14--16--16b-r-14/16--14p12---------14-16-16br-14s12------------------------|
D|-------------------------------14~~~~------------------------------------------|
A|-------------------------------------------------------------------------------|
E|-------------------------------------------------------------------------------|

e|--------------17-------20b-20~~~---17---20p19p17---19p17-----17----------------|
B|------17-20p-----20p17-----------------------------------20b-----20p17-----17--|
G|-/17-------------------------------------------------------------------19------|
D|-------------------------------------------------------------------------------|
A|-------------------------------------------------------------------------------|
E|-------------------------------------------------------------------------------|

e|--17---------------------------------------------------------------------------|
B|------20--19p17-------------------------------17~~~~~--------------------------|
G|-----------------19b-r--19p17-----19----17-------------------------------------|
D|-------------------------------------------------------------------------------|
A|-------------------------------------------------------------------------------|
E|-------------------------------------------------------------------------------|

Solo Guitar - Verse 1 & 2 (play twice) 

e|------------0----------------------------------------------------0-----------------0-|
B|---------------1---------------1------------------------------------1----------------|
G|--------2---------2--------2--------------------------------2----------2---------2---|
D|-----2--------------0---3----------3---2---0-------------2----------------0---3------|
A|--0--------------------------------------------3------0------------------------------|
E|-------------------------------------------------------------------------------------|
[ Tab from: http://www.guitartabs.cc/tabs/s/scorpions/no_one_like_you_tab_ver_4.html ]
e|------------0----------------------------------------------------0-------------------|
B|---------------1---------------1-----------------------------------1-----------------|
G|--------2---------2--------2-------------------------------0----------0--------------|
D|-----2--------------0---3---------3----2---0-----------2----------------0---2--------|
A|--0---------------------------------------------2--3---------------------------------|
E|-------------------------------------------------------------------------------------|

e|--0----------0---------|
B|-------3---------------|
G|----4-----4------------|
D|-----------------------|
A|-----------------------|
E|-----------------------|

Rythm Guitar - Verse 1 & 2 {play during second part of verse)

e|-----------------------------------------------------------------------|
B|-----------------------------------------------------------------------|
G|-----------------------------------------------------------------------|
D|-----------------------------------------------------------------------|
A|----------7--5------------------------2---3--5-------------------3--2--|
E|--0--4--7-------7--5--3--5---5--3--1-----------5--3--5--5--3--1--------|

Solo Guitar - Solo

e|-----------------------------------------------------------------------|
B|---------------------------------------------------------8b~~~~~-------|
G|--7b~~~--7-7-7-7-7-7-7-7-7-7-7-7r--7b-7r--p5--7--5---------------------|
D|-----------------------------------------------------------------------|
A|-----------------------------------------------------------------------|
E|-----------------------------------------------------------------------|

e|---------------------------------------------------5-------------------|
B|-----------------------------13b---------------5-------8p5-------------|
G|---14b--14r--p12-------14-------------7----7b--------------8-7p5-------|
D|-------------------14---------------------------------------------7----|
A|-----------------------------------------------------------------------|
E|-----------------------------------------------------------------------|

e|-----------------------------------------------------------------------|
B|-----------------------------------------------------------------------|
G|--7p5------------------------------------------------------------------|
D|-------7p5--7--7p5-----------------------------------------------------|
A|---------------------7-6-5-3----3b(slow bend)--------------------------|
E|-----------------------------------------------------------------------|

e|---17/20~~~~~---17-19-19b---17--------17---19/22b------------17-----17-------|
B|----------------------------------20----------------------17----20b----20b---|
G|----------------------------------------------------10/17--------------------|
D|-----------------------------------------------------------------------------|
A|-----------------------------------------------------------------------------|
E|-----------------------------------------------------------------------------|

e|--17-------17-------17-------17-------17----------17-20b--17-------17-20b--17-----17-|
B|------20b------20b------20b------20b------20b------------------20b------------20b----|
G|-------------------------------------------------------------------------------------|
D|-------------------------------------------------------------------------------------|
A|-------------------------------------------------------------------------------------|
E|-------------------------------------------------------------------------------------|

e|-------------------------------------------------------------------------------|
B|-20b~~~~--20---20---20r--20-20-20p17------17h20p17----------17--20p17----20b---|
G|--------------------------------------------------------19---------------------|
D|-------------------------------------------------------------------------------|
A|-------------------------------------------------------------------------------|
E|-------------------------------------------------------------------------------|

e|--17-------------------------------------------------------------------|
B|-------20p17------17---------------------------------------------------|
G|--------------20------20--19--17---------------------------------------|
D|-----------------------------------19-17--19-18-17-15b~~~~--15r--------|
A|-----------------------------------------------------------------------|
E|-----------------------------------------------------------------------|


Lyrics
Girl, it's been a long time that we've been apart 
Much too long for a man who needs love 
I miss you since I've been away 
Babe, it wasn't easy to leave you alone 
It's getting harder each time that I go 
If I had the choice, I would stay 

There's no one like you 
I can't wait for the nights with you 
I imagine the things we do 
I just wanna be loved by you 

No one like you 
I can't wait for the nights with you 
I imagine the things we do 
I just wanna be loved by you 

Girl, there are really no words strong enough 
To describe all my longing for love 
I don't want my feelings restrained 
Ooh, babe, I just need you like never before 
Just imagine you'd come through this door 
You'd take all my sorrow away 

There's no one like you 
I can't wait for the nights with you 
I imagine the things we do 
I just wanna be loved by you 

No one like you 
I can't wait for the nights with you 
I imagine the things we do 
I just wanna be loved by you 

any corrections or comments, gothphanatic@hotmail.com
Comments