Scorpions - No One Like You Chords & Tabs

 

No One Like You Chords & Tabs

Scorpions Chords & Tabs

Version: 3 Type: Tab 0 ratings
1 star 2 stars 3 stars 4 stars 5 stars
comments

No One Like You Tab

   
                       No One Like You- The Scorpions

----------------------------------PLEASE NOTE---------------------------------
This file is the author's own work and represents their interpretation of the
song. You may only use this file for private study, scholarship, or research.
------------------------------------------------------------------------------
That`s the Version I play...

No one like you (Schenker/Meine) off the album "Best of Rockers N` Ballads"
---------------

Mathias Jabs      :a Gibson "Explorer"
                   a Fender "Startocaster" with Bill Lawrence XL90 Humbucker
                                          in Bridge Position!
                  Marshall Amps           Volume & Treble on "8"
                                          Bass & Presence on "0"
                                          full Middle tones!
                  009-042 Strings
Rudolf Schenker  :v/Gibson "Flying V"     Marshall amplification...
                  Ovation  "Legend"       Roland JC 120
                  010-046 Strings

Song:
Intro:

A5  F5 G5 A5  F5 G5 A5  F5 G5 F5   E5 x2 (This Pattern for Intro,Chorus,Solo)

Pattern Explanation:
   A5              F5       G5            F5

e|--------------|----------------|       |-----------------------|
b|--------------|----------------|       |-----------------------|
g|--------------|----------------|3x     |-----------------------|
D|-7-7----------|-3-3-----5-5----|       |3--3--3--3--3--3--3--3-|
A|-7-7----------|-3-3-----5-5----|       |3--3--3--3--3--3--3--3-|
E|-5-5----------|-1-1-----3-3----|       |1--1--1--1--1--1--1--1-|

   1 &  2& 3& 4   1 &  2  3 &  4          1  &  2  &  3  &  4  &
        |  |  |        |       | *!

 *! note: every | stands for a quarter pause!

  E5
e|------------------------|
b|------------------------|
g|------------------------|
D|2--2--2--2--2--2--2--2--|
A|2--2--2--2--2--2--2--2--|
E|0--0--0--0--0--0--0--0--|
[ Tab from: http://www.guitartabs.cc/tabs/s/scorpions/no_one_like_you_tab_ver_3.html ]
  1  &  2  &  3  &  4  &

Verse:
     Am              F/A                 Am               F/A             \
e|-------0---------|-----------------|-------0---------|-----------------| |
b|----------1------|------1----------|----------1------|-------1---------| |
g|-----2------2----|---2-------------|-----2------2----|----2------------| |
D|---2-----------2-|3----------------|---2-----------2-|-3---------------| |
A|-----------------|-----------------|-----------------|-----------------| |
E|-----------------|-----------------|-----------------|-----------------| |
     Am              F/A               C                  E                |x2
e|-------0---------|-----------------|--------0--------|------0----------| |
b|----------1------|----1------------|------1-----1----|----0----0-------| |*!
g|-----2------2----|--2--------------|----0---------0--|--1--------1-----| |
D|---2-----------2-|3-----3---2--0---|----------------2|-------------2---| |
A|-----------------|---------------3-|-3---------------|-----------------| |
E|-----------------|-----------------|-----------------|-----------------| |
                                                                           /
*   Play this melody during the second part of the Verse:

   E                Am                   F/A          Am                F/A
                    Babe,...
e|-----------------|--------------------|------------|-----------------|------|
b|-----------------|--------------------|------------|-----------------|------|
g|-----------------|--------------------|------------|-----------------|------|
D|-----------------|--------------------|------------|-----------------|------|
A|---------7--5----|--------------------|---2---3--5-|-----------------|-3--2-|
E|-0--4--7-------7-|5--3--5----5--3--1--|------------|5--3--5---5--3--1|------|

 Greetings
  Stephan
  _   _
 / `-' (         ppp
 D[ D D IIIIIIII[+++}
 \_.-._(         bbb     MD1.11b16 *s.mueller@hit.handshake.de*
Comments