Scorpions - No One Like You Chords & Tabs

 

No One Like You Chords & Tabs

Scorpions Chords & Tabs

Version: 2 Type: Bass Tab 0 ratings
1 star 2 stars 3 stars 4 stars 5 stars
comments

No One Like You Bass Tab

BAND:scorpians

SONG:no one like you           (/ hold for a second)

intro (repeat until it gets slow)

-------------------------------------------------------
-------------------------------------------------------
-00-------00-------00-------0/-------------------------
----11-33----11-33----11-33----1/-------------------  

verse (start when the rhythm guitar starts,repeat
until refrain)

-------------------------------------------------------
-------------------------------------------------------
000---------000----------000---------------------------
----111-333-----111-333--------------------------------
[ Tab from: http://www.guitartabs.cc/tabs/s/scorpions/no_one_like_you_btab_ver_2.html ]
refrain (repeat until verse or solo)

-------------------------------------------------------
-------------------------------------------------------
00-------00-------00------0/---------------------------
---11-33----11-33---11-33---1/-------------------------

solo   (repeat until refrain starts again)
 
-------------------------------------------------------
-------------------------------------------------------
00-------00-------00-------0/------------------------
---11-33----11-33----11-33----1/----------------------


        TABBED BY JUSTIN 

        IT SOUNDS RIGHT WHEN I PLAY IT, IF YOU FIND A
        MISTAKE PLEASE SEND YOUR CORRECTIONS 
        panzer105@yahoo.com
Comments