Scorpions - Make It Real Chords & Tabs

 

Make It Real Chords & Tabs

Scorpions Chords & Tabs

Version: 2 Type: Tab 0 ratings
1 star 2 stars 3 stars 4 stars 5 stars
comments

Make It Real Tab

------------------------------------------------------------------------|
------------------------------------------------------------------------|
------------------------------------------------------------------------|
-------5----5----5---5---5---7----7---7---7-----------------------------|
------5----5----5---5---5---7----7---7---7------------------------------|
-----7----7----7---7---7---5----5---5---5-------------------------------|
repeat this as many times as needed

palm mute this part
[ Tab from: http://www.guitartabs.cc/tabs/s/scorpions/make_it_real_tab_ver_2.html ]
--------------------------------------------------------------------------------------|
--------------------------------------------------------------------------------------|
----5----5-----5--5-----5----5----5----5-------7---7----7----7------------------------|
--5----5-----5---5----5----5----5-----5-----7----7----7----7--------------------------|
-7---7-----7---7----3----3----3-----3-----5----5----5----5----------------------------|
--------------------------------------------------------------------------------------|
repeat that as many times as you need

this part is during the solo. rudolph does this part

-------------------------------------------------------------------------------------------|
-------------------------------------------------------------------------------------------|
-----5----5---5----7--twice-------5-----5-----5----5-----5----7----5-----------------------|
---5----5---5-----7-------------5-----5-----5-----5-----5----7---5-------------------------|
-7----7----7----5-------------7----7------7-----7-----7----5----3--------------------------|
-------------------------------------------------------------------------------------------|
repeat that over and over. you can figure out the beat from the song thats pretty much the whole song.
i dont know mathias part so i wont put it but this is a badass song
Comments