Scorpions - Make It Real Chords & Tabs

 

Make It Real Chords & Tabs

Scorpions Chords & Tabs

Version: 2 Type: Bass Tab

Make It Real Bass Tab

THIS SONG IS FROM THE ANIMAL MAGNETISM ALBUM.
IT IS ONE OF MY FAVOURITE SCORPIONS SONGS.
I AM ONLY 11 SO IF IT IS RONG U NO Y BUT IT SOUNDS RITE 2 ME.

INTRO; AFTER SCHENKER COMES IN...

G -------------------------------------|
D -------------------------------------|
A -------------------------------------|
E --5-3-5-----0-5-3--------1-3-1-3-----|    X4

ON THE 4TH TIME IT GOES LIKE THIS...
[ Tab from: http://www.guitartabs.cc/tabs/s/scorpions/make_it_real_btab_ver_2.html ]
G ------------------|
D ------------------|
A ------------------|
E --5-3-5-----0-5-3-|

VERSE

G -----------------------|
D -----------------------|
A --5--5-1--1------3-3-5-|
E ------------1--1-------|

G -----------------------|
D -----------------------|
A --5--5-1--1----------5-|
E ------------1--1-3-3---|

THE CHORUS IS THE SAME AS THE INTRO. YOU PLAY IT 4 TIMES.

DURING THE SOLO YOU PLAY THIS...

G ------------------------------------|
D ------------------------------------|
A --5-553---5-553---5-553---8---7-----|
E ------------------------------------|    X4