Scorpions - Make It Real Chords & Tabs

 

Make It Real Chords & Tabs

Scorpions Chords & Tabs

Version: 1 Type: Bass Tab 0 ratings
1 star 2 stars 3 stars 4 stars 5 stars
comments

Make It Real Bass Tab

Make It Real
scorpions - animal magnetism

Intro/chorus:
G|-----------------------------------------|
D|-0-0---0----------0-0--0---------0-0--0--|
A|--3---3-3-0-3-0-3--3--3-3-33-3-3--3--3-3-|
E|----------------------------3-3-3--------|
[ Tab from: http://www.guitartabs.cc/tabs/s/scorpions/make_it_real_btab.html ]
Verse:
G|-----------------------------------------------------------|
D|-0-0-0-0---------------------0-0-0-0-----------------------|
A|--------1-1-1-1-------3-3-3-3-------1-1-1-1----------------|
E|---------------1-1-1-1---------------------1-1-1-1-3-3-3-3-|

Bridge:
G|---------------------------------------|
D|-0-0-0-3-2-0-0-0----0-0-0-3-2-0-0-0----|
A|--3-3-3-----3-3-3-1--3-3-3-----3-3-3-1-|
E|---------------------------------------|
Comments