Scorpions - Loving You Sunday Morning Chords & Tabs

 

Loving You Sunday Morning Chords & Tabs

Scorpions Chords & Tabs

Version: 2 Type: Tab 0 ratings
1 star 2 stars 3 stars 4 stars 5 stars
comments

Loving You Sunday Morning Tab

   
Band:  Scorpions
Album: Lovedrive
Song:  Loving You Sunday Morning

Copyright (c)  (Fame) (1979)
Version 1.0 - (05/07/05)

Transcribed By: Steve
Email:          stephen.elvidge1@ntlworld.com



.  - palm mute           /  - slide up to
\  - slide down to       ~  - vibrato
h  - hammer on           b  - Bend
p  - pull off            Suffixes for bend
t  - tap                 f  - full bend    h - half bend
ph - pinched harmonic    q  - quarter bend t - tap bend
*  - see comment         ^  - Hold bend    r release bend
x  - Stuccatto           ~  - vibrato bend
,  - slight palm mute    () - ghost note, sustained note
"  - tremolo note        <> - Trill

Tunning E A D G B E
 

 Intro


E--------------------------|
B--------------------------|
G-----7-9-7--8-8-9--(9)----|
D---7--------7-7-7--(7)----|
A-9------------------------|
E--------------------------| Rpt

 Main Riff

  Guitar 1
E[---------------------------------|
B[---10-8--8---7--7----------------|
G[---9--7--7---7--7----------------|
D[---7--7--7---7--7--2---2---2-----|
A[-------------------0---0-3p0-----|
E[---------------------------------|
 [Guitar 2
 [ [------------PM---------------]
E[---------------------------------|
B[---------------------------------|
G[---------------------------------|
D[---------------------------------|
A[-0-0-0-0-0-0-0-0-0-0-0-0-0-0-0-0-|
E[---------------------------------|

  Guitar 1
E[---------------------------------|
B[---10-8--8---7--7--------3p2-----|
G[---9--7--7---7--7--2---2-2-2-----|
D[---7--7--7---7--7--2---2---------|
A[-------------------0---0---------|
E[---------------------------------|
 [Guitar 2
 [ [------------PM---------------]
E[---------------------------------|
B[---------------------------------|
G[---------------------------------|
D[---------------------------------|
A[-0-0-0-0-0-0-0-0-0-0-0-0-0-0-0-0-|
E[---------------------------------|

  Guitar 1
E[---------------------------------|
B[---10-8--8---7--7----------------|
G[---9--7--7---7--7----------------|
D[---7--7--7---7--7--2---2---2-----|
A[-------------------0---0-3p0-----|
E[---------------------------------|
 [Guitar 2
 [ [------------PM---------------]
E[---------------------------------|
B[---------------------------------|
G[---------------------------------|
D[---------------------------------|
A[-0-0-0-0-0-0-0-0-0-0-0-0-0-0-0-0-|
E[---------------------------------|

  Guitar 1
E[-----------------------------------------------|
B[---10-8--8---7--7------------------------------|
G[---9--7--7---7--7--2-----------(2)-------------|
D[---7--7--7---7--7--2-----------(2)-------------|
A[-------------------0-----------(0)-------------|
E[-----------------------------------------------|
 [Guitar 2
 [ [--------PM--------]
E[-----------------------------------------------|
B[-----------------------------------------------|
G[-----------------------------------------------|
D[-----------------------------------------------|
A[-0-0-0-0-0-0-0-0-0-0-----------(0)-------------|
E[-----------------------------------------------|

 Verse

  Guitar 1
E[---------------------------------|
B[---10-8--8---7--7----------------|
G[---9--7--7---7--7----------------|
D[---7--7--7---7--7--2---2---2-----|
A[-------------------0---0-3p0-----|
E[---------------------------------|
 [Guitar 2
 [ [------------PM---------------]
E[---------------------------------|
B[---------------------------------|
G[---------------------------------|
D[---------------------------------|
A[-0-0-0-0-0-0-0-0-0-0-0-0-0-0-0-0-|
E[---------------------------------|
[ Tab from: http://www.guitartabs.cc/tabs/s/scorpions/loving_you_sunday_morning_tab_ver_2.html ]
  Guitar 1
E[---------------------------------|
B[---10-8--8---7--7--------3p2-----|
G[---9--7--7---7--7--2---2-2-2-----|
D[---7--7--7---7--7--2---2---------|
A[-------------------0---0---------|
E[---------------------------------|
 [Guitar 2
 [ [------------PM---------------]
E[---------------------------------|
B[---------------------------------|
G[---------------------------------|
D[---------------------------------|
A[-0-0-0-0-0-0-0-0-0-0-0-0-0-0-0-0-|
E[---------------------------------| Rpt 4 X

 Chorus

  Guitar 1
E[----------------------|
B[-------3-1-------3-1--|
G[-----0---------0------|
D[---2---------2--------|
A[-3---------3----------|
E[----------------------|
 [Guitar 2
E[----------------------|
B[----------------------|
G[-5--------(5)---------|
D[-5--------(5)---------|
A[-3--------(3)---------|
E[----------------------| Rpt

  Guitar 1
E[---------------------------------|
B[---10-8--8---7--7----------------|
G[---9--7--7---7--7----------------|
D[---7--7--7---7--7--2---2---2-----|
A[-------------------0---0-3p0-----|
E[---------------------------------|
 [Guitar 2
 [ [------------PM---------------]
E[---------------------------------|
B[---------------------------------|
G[---------------------------------|
D[---------------------------------|
A[-0-0-0-0-0-0-0-0-0-0-0-0-0-0-0-0-|
E[---------------------------------|

  Guitar 1
E[---------------------------------|
B[---10-8--8---7--7----------------|
G[---9--7--7---7--7--2-----(2)-----|
D[---7--7--7---7--7--2-----(2)-----|
A[-------------------0-----(0)-----|
E[---------------------------------|
 [Guitar 2
 [ [------------PM---------------]
E[---------------------------------|
B[---------------------------------|
G[---------------------------------|
D[---------------------------------|
A[-0-0-0-0-0-0-0-0-0-0-0-0-0-0-0-0-|
E[---------------------------------|

  Guitar 1
E[----------------------|
B[-------3-1-------3-1--|
G[-----0---------0------|
D[---2---------2--------|
A[-3---------3----------|
E[----------------------|
 [Guitar 2
E[----------------------|
B[----------------------|
G[-5--------(5)---------|
D[-5--------(5)---------|
A[-3--------(3)---------|
E[----------------------| Rpt

  Guitar 1
E[---------------------------------|
B[---10-8--8---7--7----------------|
G[---9--7--7---7--7----------------|
D[---7--7--7---7--7--2---2---2-----|
A[-------------------0---0-3p0-----|
E[---------------------------------|
 [Guitar 2
 [ [------------PM---------------]
E[---------------------------------|
B[---------------------------------|
G[---------------------------------|
D[---------------------------------|
A[-0-0-0-0-0-0-0-0-0-0-0-0-0-0-0-0-|
E[---------------------------------|

  Guitar 1
E[---------------------------------|
B[---10-8--8-----------------------|
G[---9--7--7-4------(4)------------|
D[---7--7--7-3------(3)------------|
A[---------------------------------|
E[---------------------------------|
 [Guitar 2
 [ [---PM--]
E[---------------------------------|
B[---------------------------------|
G[-----------4------(4)------------|
D[-----------3------(3)------------|
A[-0-0-0-0-0-----------------------|
E[---------------------------------|


 Rpt Main Riff
 Rpt Verse and Chorus.

  Guitar 1
E[---------------------------------|
B[---10-8--8------------------3----|
G[---9--7--7-4------(4)-----4------|
D[---7--7--7-3------(3)---3--------|
A[----------------------0----------|
E[---------------------------------|
 [Guitar 2
 [ [---PM--]
E[---------------------------------|
B[---------------------------------|
G[-----------4------(4)------------|
D[-----------3------(3)------------|
A[-0-0-0-0-0-----------------------|
E[---------------------------------|

 Mid 8

     ~~~~
E--------------------------|
B--------------------------|
G-9--7----4-4-4-4-4-4-4-4--|
D-7--6----3-3-3-3-3-3-3-3--|
A--------------------------|
E--------------------------| Rpt

     ~~~~
E-----------------------|
B-----------------------|
G-9--7----4-4-4---------|
D-7--6----3-3-3-2-------|
A-----------------5-3-2-|
E-----------------------|

 Backing for guitar solo
          ~~
E------------------------|
B------------------------|
G-2---2-2---2---2--------|
D-2---2-2---2---2--------|
A-0-x-0-0-3p0-x-0-5-3-2--|
E------------------------| Rpt 6 X

 Rpt Mid 8

 Last time
     ~~~~
E--------------------------|
B-----------------------3--|
G-9--7----4---(4)-----4----|
D-7--6----3---(3)---3------|
A-----------------0--------|
E--------------------------|

 Rpt Verse and Chorus

 Rpt Mid 8

 Rpt solo backing Riff to fade.



END
Comments