Scorpions - Hurricane 2000 Chords & Tabs

 

Hurricane 2000 Chords & Tabs

Scorpions Chords & Tabs

Version: 1 Type: Bass Tab 0 ratings
1 star 2 stars 3 stars 4 stars 5 stars
comments

Hurricane 2000 Bass Tab

   
#----------------------------------PLEASE NOTE---------------------------------#
#This file is the author's own work and represents their interpretation of the #
#song. You may only use this file for private study, scholarship, or research. #
#------------------------------------------------------------------------------#


The Scorpions & Berliner Philharmoniker - Hurricane 2000
Transcribed by Tim Kersjes (tim219@hotmail.com)

This song is based on the orginal 'Rock you like a Hurricane', but it isn't 
the same at all, so therefor my tab.

Standard tuning (E,A,D,G)
[ Tab from: http://www.guitartabs.cc/tabs/s/scorpions/hurricane_2000_btab.html ]
Timing: for timing, listen very closely to the intro of the song. After a 
while, the bass and drums come in. This
timing is repeated throughout the song. Also, the bass follows the same 
timing as the first guitar.

fig 1.
G||--------------------------------------||
D||--------------------------------------||
A||---------------0---3--5-5-------------||
E||--0-0---0-3---------------------------||

fig .2
G||------------------------------------||
D||------------------------------------||
A||--------------------0-3-3-3-5-5-----||
E||--0-0-0-0-3-0-3---------------------||

Please mail me for further comments or corrections.


Taken from The Bass Tab Archive ~ http://www.basstabarchive.com
Comments