Scorpions - Holiday Chords & Tabs

 

Holiday Chords & Tabs

Scorpions Chords & Tabs

Version: 3 Type: Tab 0 ratings
1 star 2 stars 3 stars 4 stars 5 stars
comments

Holiday Tab

Holiday Solo
Key
/ = slide up
\ = slide down
^ = bend full tone

Listen to recording to hear timings

E]--------------------------------------------------------------------------------------------------------------------------------|
B]------------------------------------------------------------------------------------------------------------------------9^---8--|
G]---------------------------------------------------------------------------7---7----9--10-7----------9---10---9-----------------|
D]-----0---3----5/7---------5\2-----------5----------3------5-----5/7-------------------------------------------------------------|
A]--------------------------------------------------------------------------------------------------------------------------------|
E]--------------------------------------------------------------------------------------------------------------------------------|
[ Tab from: http://www.guitartabs.cc/tabs/s/scorpions/holiday_tab_ver_3.html ]
E]------------------------------------------------------------------------------------------------------------------------------------|
B]------5--6--3------5-6---3----5---6---3-----------------------------------------------------------------------3------3----5------6--|
G]-----------------2---------------------------2---0------------------------------------------------------------2-----2---------------|
D]-----------------------------------------------------2----3-----5----5/7-------5----3---------7--------0----------------------------|
A]------------------------------------------------------------------------------------------------------------------------------------|
E ]-----------------------------------------------------------------------------------------------------------------------------------|

E]------------------------------------------------|
B]-------8----9^----------------------------------|
G]------------------------------------------------|
D]------------------------------------------------|
A]------------------------------------------------|
E ]-----------------------------------------------|
Comments