Scorpions - Hey You Chords & Tabs

 

Hey You Chords & Tabs

Scorpions Chords & Tabs

Version: 1 Type: Bass Tab 0 ratings
1 star 2 stars 3 stars 4 stars 5 stars
comments

Hey You Bass Tab

Scorpions
Hey You! - animal magnetism 
[ Tab from: http://www.guitartabs.cc/tabs/s/scorpions/hey_you_btab.html ]
G|-------------------------------------------------------------------|
D|-2-2-2--2-2-0-0--0-0---------------------0-0-0-2-2--2-2-0-0--0-0---|
A|---------2----------0-2-3-3--3-3-2-0---2----2--------------------3-|
E|------------------------------------3-3-3--------------------------|

G|-----------------------------------------------------------------|
D|---------------------------------------------------------0-0-0-0-|
A|------------------------------------------------------2-3--------|
E|-0-0-0-0-0-0-0-0-0-0-0-0-0-0-0-0-0-0-0-0-0-0-0-0-3-3-3-----------|
Comments