Scorpions - Dont Believe Her Chords & Tabs

 

Dont Believe Her Chords & Tabs

Scorpions Chords & Tabs

Version: 1 Type: Bass Tab 0 ratings
1 star 2 stars 3 stars 4 stars 5 stars
comments

Dont Believe Her Bass Tab

Scorpions
Don't Believe Her
Crazy World

Verse/bridge:
G|------------------------------------------------------------------|
D|-00000000000000000000000000000-----000000000000000000000000000000-|
A|------------------------------0-3-0-------------------------------|
E|------------------------------------------------------------------|
[ Tab from: http://www.guitartabs.cc/tabs/s/scorpions/dont_believe_her_btab.html ]
Pre-chorus:
G|-------------------------------------|----------|
D|-0-0----0-0-0-3-0-0-----0-0-0-3-0-0--|----------|
A|--3-3------3-----3-3-------3-----3-3-|-00000000-|
E|------3--------------3---------------|----------|

Chorus:
G|-----------------------------------------------------------------------|
D|--------------0-00-0------------0-1/3-0-----------00-0-----------------|
A|-111-----3-1-3----3-111----3-1-3-------3111----313--3---------00000000-|
E|----1-111--------------1111----------------1111-------33333333---------|

Ending:
G|---------------|
D|-------------0-|
A|-1-1-1-3-3-3---|
E|---------------|
Comments