Scorpions - Animal Magnetism Chords & Tabs

 

Animal Magnetism Chords & Tabs

Scorpions Chords & Tabs

Version: 1 Type: Tab 0 ratings
1 star 2 stars 3 stars 4 stars 5 stars
comments

Animal Magnetism Tab

Author/Artist: Scorpions
Title: Animal Magnetism 
Album: Animal Magnetism
Transcribed by: Nick
Email: UFOrules@aol.com

e||-----------------|---------------------------------|
B||-----------------|---------------------------------|
G||---2-1-----------|------2-1------------------------|
D||-------2-2-2/3---|----------2-2-2/3---3-3-3/5-3----|
A||-----------------|---------------------------------|
E||-0---------------|--0---------------------------0--|



[ Tab from: http://www.guitartabs.cc/tabs/s/scorpions/animal_magnetism_tab.html ]
||-------------|-------------|-------------|----------------|
||-------------|-------------|-------------|----------------|
||-------------|-------------|-------------|----------------|
||-2-2-2-3-2-2-|-2-2-2-3-2-2-|-2-2-2-3-2-2-|-------0---0----|
||-------------|-------------|-------------|-0-2-3---3------|
||-------------|-------------|-------------|----------------|



||-------------|-------------|------------------------|
||-------------|-------------|------------------------|
||-------------|-------------|10-10-10-10-10-10--9----|
||-2-2-2-3-2-2-|-2-2-2-3-2-2-|10-10-10-10-10-10--9----|
||-------------|-------------|-8--8--8--8--8--8--7----|
||-------------|-------------|------------------------|
Comments