Scooter - Leave In Silence Chords & Tabs

 

Leave In Silence Chords & Tabs

Scooter Chords & Tabs

Version: 1 Type: Bass Tab 0 ratings
1 star 2 stars 3 stars 4 stars 5 stars
comments

Leave In Silence Bass Tab

LEAVE IN SILENCE
-Scooter-

Lyrics & music: H.P. Baxxter, Rick J. Jordan, Ferris Bueller, Jens Thele & Nosie Katzmann
From the album: The Age Of Love (1996)


Tabbed by Linus Olsson (Linuso@hotmail.com)


Here's a wonderful ballad from Scooter! The bass is dead easy. It's the same
rhythm the whole track.



INTRO:
G:-------------------| (Just keep
D:-------------------|  playing until
A:--3-3-3-3-3-3-3-3--|  the vocals
E:-------------------|    start)



VERSE:
G:-------------------|-------------------|-------------------|-------------------|
D:-------------------|-------------------|-------------------|-------------------|
A:--3-3-3-3-3-3-3-3--|--3-3-3-3-3-3-3-3--|--5-5-5-5-5-5-5-5--|--3-3-3-3-3-3-3-3--|
E:-------------------|-------------------|-------------------|-------------------|


[ Tab from: http://www.guitartabs.cc/tabs/s/scooter/leave_in_silence_btab.html ]
BRIDGE:
G:-------------------|-------------------|-------------------|-------------------|
D:-------------------|-------------------|-------------------|-------------------|
A:--2-2-2-2-2-2-2-2--|--0-0-0-0-0-0-0-0--|--2-2-2-2-2-2-2-2--|--0-0-0-0-0-0-0-0--|
E:-------------------|-------------------|-------------------|-------------------|

G:-------------------|-------------------|-----------|
D:-------------------|-------------------|-----------|
A:--5-5-5-5-5-5-5-5--|--5-5-5-5----------|-----------|
E:-------------------|----------3-3-3-3--|--3-3-3-3--|


CHORUS:
G:-------------------|-------------------|-------------------|-------------------|
D:-------------------|-------------------|-------------------|-------------------|
A:--3-3-3-3-3-3-3-3--|-------------------|-------------------|-------------------|
E:-------------------|--3-3-3-3-3-3-3-3--|--1-1-1-1-1-1-1-1--|--3-3-3-3-3-3-3-3--|



FINAL TONE:
G:-------------------|
D:-------------------|
A:--3----------------|
E:-------------------|


On the solo with the digital voice and on the outro, play the chorus bassline.
Comments