Scofield John - Ideofunk Chords & Tabs

 

Ideofunk Chords & Tabs

Scofield John Chords & Tabs

Version: 1 Type: Tab 0 ratings
1 star 2 stars 3 stars 4 stars 5 stars
comments

Ideofunk Tab

   
John Scofield
Ideofunk 
from Uberjam
tabbed by mitch bonkowski

And another classic by scofield that i love, off the uberjam cd,
im pretty sure about this one all the way through. For parts in 
the solo. He probably uses an octivia or whatever makes the 
pitch go up a full octave instead of goin up in the 24th fret 
range. i didnt tab out all the hammers on and pull offs, or 
slides, I also didnt tab out the organ or flute part.

-enjoy 


have to figure out the rythm patterns on your own.
solo in E 

backing guitar(0:14)
    E7             D7
e[---------------------------------------------------------------------
b[--5-------------3----------------------------------------------------
g[--7-------------5----------------------------------------------------
d[--6-------------4----------------------------------------------------
a[--7-------------5----------------------------------------------------
e[---------------------------------------------------------------------

main riff (0:25)
e[---------------------------------------------------------------------
b[---------------------------------------------------------------------
g[---------------------------------------------------------------------
d[---6-9-----6-9---9-11-9-7-----/7-------------------------------------
a[-7-------7----------------9------10--7\5-----------------------------
e[---------------------------------------------------------------------

e[---------------------------------------------------------------------
b[---------------------------------------------------------------------
g[---------------------------------------------------------------------
d[---6-9-----6-9---9-11-9-7-----6--7p6---------------------------------
a[-7-------7----------------9------------------------------------------
e[---------------------------------------------------------------------

(0:35)
  E                D         E               D
e[---------------------------------------------------------------------
b[----5--9---------------------------5-9-----------------5-------------
g[-/7------7----7-6-5-------------/7------------------------6----------
d[--------------6-5-4----------------------------7---5-----------------
a[--------------7-6-5--------------------------------------------------
e[---------------------------------------------------------------------

(0:46)
main riff
 
part b (0:56)
e[---------------------------------------------------------------------
b[---------------------------------------------------------------------
g[------------------------------------4-4-3-4-3------------------------
d[--------------2-2-3-3-2-2-----------5-5-4-5-4------------------------
a[------2-2-5-5-------------5-5-2-2------------------------------------
e[-3-3-----------------------------------------------------------------

(1:12)
e[-----------------------------------------------------------9---------
b[------------------------------------------------------7/9------------
g[--4-------------------------------4----------------------------------
d[--3----------2--------------------3-------2--------------------------
a[--4------2-4---4-2-4--------------4---2-4---4-2-4--------------------
e[-----------------------4-4-3-3-2-------------------------------------

(1:18)
main riff
[ Tab from: http://www.guitartabs.cc/tabs/s/scofield_john/ideofunk_tab.html ]
solo w/ backin guitar chords
(1:34)
e[----------------------------------12--14/16-14-12-14-----------------
b[--/15-17---------------12--12/14-------------------------------------
g[----------14\12--12/14-----------------------------------------------
d[---------------------------------------------------------------------
a[---------------------------------------------------------------------
e[---------------------------------------------------------------------
(1:38)
e[-/17--19-15b(1/4)-14-12-14----12-15-14p12----12-12-------------------
b[------------------------------------------15-------------------------
g[---------------------------------------------------------------------
d[---------------------------------------------------------------------
a[---------------------------------------------------------------------
e[---------------------------------------------------------------------
(1:44)
e[------------------------------------------------------14-17-21--19-19
b[-15-14-15\14\13\12--------------------------14-17-15-----------------
g[-------------------12h14-----------13-16-14--------------------------
d[-------------------------------14------------------------------------
a[---------------------------------------------------------------------
e[---------------------------------------------------------------------
(1:48)
e[-17-15-17-15---------------------------------------------------------
b[-------------17-15-17-15-(13)/14-(13)/14-----------------------------
g[-----------------------------------------14~-------------------------
d[---------------------------------------------------------------------
a[---------------------------------------------------------------------
e[---------------------------------------------------------------------
(1:51)
e[-------19-16-------------------/21--24-24---------15----17-15h16-----
b[-15-17-------17-15-17--17-------------------17-17----17--------------
g[---------------------------------------------------------------------
d[---------------------------------------------------------------------
a[---------------------------------------------------------------------
e[---------------------------------------------------------------------
(1:56)
e[----------------17--19-/15-14-12----24b(1/4)--21-19-21-19------------
b[-17\15-15/17----------------------------------------------20-19------
g[----------------------------------------------------------------21-18
d[---------------------------------------------------------------------
a[---------------------------------------------------------------------
e[---------------------------------------------------------------------
(2:02)
e[--------------------------------------------------------23-22--------
b[-----------------------------------------20-17-18/19-22--------------
g[-21--------------------------------19-21-----------------------------
d[----21\20-17h18-------17/18-21--19-----------------------------------
a[----------------19-19------------------------------------------------
e[---------------------------------------------------------------------
(2:06)
e[-24-21\20--17-19---19-15---------19-15----------24b(1 1\2)-24-23-20--
b[--------------------------17-19---------17-19------------------------
g[---------------------------------------------------------------------
d[---------------------------------------------------------------------
a[---------------------------------------------------------------------
e[---------------------------------------------------------------------
(2:12)
e[22-21-19----19-------------------------------------------------------
b[---------22-----20h21------------------------------------------------
g[-----------------------19\18-17--------------------------------------
d[---------------------------------19\18-17----------------------------
a[------------------------------------------17-19-17-19--17-19-17-19-19
e[---------------------------------------------------------------------
(2:16)
e[---------------------------------------------------------------------
b[-------------------------------------------------------8-10----------
g[---------------------------------------------------7-9-------9-8-7---
d[-----------------17b(1/4)-------7\5p0-5-5/6-6/7/9------------------9-
a[--17\--19-17-19------------------------------------------------------
e[---------------------------------------------------------------------
(2:21)
e[--------9--9---10--10---9--------------------------------------------
b[-12-12---------------------12--9-------------------------------------
g[-9--9---9--9---9---9-------------------------------------10--10--7/9-
d[-----------------------------------9--9--11--9-----------------------
a[------------------------------------------------10--7----------------
e[---------------------------------------------------------------------
(2:27)
e[-------9---------------15-17/19-15-17b(1/4)-15-17b(1/4)--------------
b[---12---------15----17-----------------------------------------------
g[-9-9---9---------16--------------------------------------------------
d[---------------------------------------------------------------------
a[---------------------------------------------------------------------
e[---------------------------------------------------------------------
(2:31)
e[---------------------------------------------------------------------
b[-------------------------15------------------------------------------
g[-------------------15-17---------------------------------------------
d[--17-20---17-15-17---------------------------------------------------
a[---------------------------------------------------------------------
e[---------------------------------------------------------------------
(2:32)
e[--17-19-19b(1/2)19(1/2)19(1/4)19-17b(1/4)--17b(1/4)------------------
b[----------------------------------------------------18b(1/4)-15------
g[---------------------------------------------------------------------
d[---------------------------------------------------------------------
a[---------------------------------------------------------------------
e[---------------------------------------------------------------------
(2:35)
octave higer-----------|

e[-15---15-13---/17-/16----16-14--19-15--------------------------------
b[---------------------------------------------------------------------
g[------------------------------------------17\--16\--14\--------------
d[---------------------------------------------------------------------
a[---------------------------------------------------------------------
e[---------------------------------------------------------------------
(2:40)
e[------------------15-16-17-14----16-15--17--16-17-18-17-18-19-18-19--
b[------------17-19-------------15-------------------------------------
g[--18--16-18----------------------------------------------------------
d[---------------------------------------------------------------------
a[---------------------------------------------------------------------
e[---------------------------------------------------------------------
(2:45)
e[-20-21-22-23-24------------------------17-------------------------
b[----------------23-22-21-20------18h9-----17/18-15----------------
g[----------------------------19------------------------------------
d[------------------------------------------------------------------
a[------------------------------------------------------------------
e[------------------------------------------------------------------
(2:48)
e[------------------------------------------------------24b(26)r24----
b[-----14h15-15/16-17------20b(21)r20-18--20-18-20-18-----------------
g[--16----------------------------------------------------------------
d[---------------------------------------------------------------------
a[---------------------------------------------------------------------
e[---------------------------------------------------------------------

(2:52)
behind the organ, mostly just C#9
e[-----------------------------------------------------------9---------
b[------------------------------------------------------7/9------------
g[--4-------------------------------4----------------------------------
d[--3----------2--------------------3-------2--------------------------
a[--4------2-4---4-2-4--------------4---2-4---4-2-4--------------------
e[-----------------------4-4-3-3-2-------------------------------------

(3:19)
main riff

(3:29)
let ring
 E               D  
e[---------------------------------------------------------------------
b[--------9--------------7---------------------------------------------
g[------9---9---------7----7---4/5-------------------------------------
d[--7/9------------6-----------3/4-------------------------------------
a[---------------------------------------------------------------------
e[---------------------------------------------------------------------
  E                     D
e[---------------------------------------------------------------------
b[-----9------------------------8-8--7-5-/7-5--5-----------------------
g[---9---9----7------------5-------------------------------------------
d[-9--------9------------7---------------------------------------------
a[---------------------------------------------------------------------
e[---------------------------------------------------------------------
(3:40)
main riff

(3:50) till end, behind the flute
e[-----------------------------------------------------------9---------
b[------------------------------------------------------7/9------------
g[--4-------------------------------4----------------------------------
d[--3----------2--------------------3-------2--------------------------
a[--4------2-4---4-2-4--------------4---2-4---4-2-4--------------------
e[-----------------------4-4-3-3-2-------------------------------------

comments, suggestions, corrections, requests, or anything else, 
spoonman162@yahoo.com, 

-mitch bonkowski 2005
Comments