Scofield John - Animal Farm Chords & Tabs

 

Animal Farm Chords & Tabs

Scofield John Chords & Tabs

Version: 1 Type: Tab 0 ratings
1 star 2 stars 3 stars 4 stars 5 stars
comments

Animal Farm Tab

song:Animal Farm
artist: John Scofield
recording: off the album Uberjam
tabbed by: mitch bonkowski
email:spoonman162@yahoo.com

ive grown to love this guy more and more, i wanted to learn some of 
stuff, but no one has tabbed it out. so i decided just to tab it out 
myself. hopefully people will find this helpful.  there will be more. 
-------------------------------------------------------
the first chord may be just a diad of the top 2 notes. 

for the solos, the first solo is done basically like that for all 
shows, with some variations.  the second one kind of goes along 
the same lines.  i put lines in where each phrase ends, to help 
with reading it.  
  
i didnt put much effort into rythm notation. it should be easy to 
just figure it out by ear.  

p=pull off
h=hammer on
()= the tone to which the note should bend to

key: b flat locrian (A flat Major)
first part-main theme
e[---------------------------------------------------------------------
b[--9--9--9--9-8-9----8-9-8-6-4----4-6-4-2-----------------------------
g[--7--7--7--7-6-7---------------------------3--3--1--3-1--------------
d[--8--8--8--8-7-8------------------------------------------3p2p1------
a[-----------------------------------------------------------------1---
e[---------------------------------------------------------------------

 avi's chord -  you can figure out the rythm
e[---------------------------------------------------------------------
b[--11-----------------------------------------------------------------
g[---------------------------------------------------------------------
d[---8-----------------------------------------------------------------
a[---------------------------------------------------------------------
e[---------------------------------------------------------------------

second part
                                 [doubled by]
e[---------------------------------------------------------------------
b[-------------------------------[4-6-4-11-9----8-9-8-4-6]-------------
g[---------------------------------------------------------------------
d[-1--3-1-8-6----5-6-5-1-3------------------------------------------
a[---------------------------------------------------------------------
e[---------------------------------------------------------------------

solo one
                             |
e[---------------------------------------------------------------------
b[--5-3-5-3-0-------5--3-5-----5-3-5-3-0-------3p-0-3-5--------------
g[---------------4----------------------------4------------------------
d[---------------------------------------------------------------------
a[---------------------------------------------------------------------
e[---------------------------------------------------------------------
  |
e[--14-1210-10-------17--15-14-12-------------------------------------
b[--------------12-----------------------------------------------------
g[---------------------------------------------------------------------
d[---------------------------------------------------------------------
a[---------------------------------------------------------------------
e[---------------------------------------------------------------------


solo 2
 					     |                      
e[-------------------------------------------------9------------------
b[--8-10-12-10-8---6-8-6-/10--6-8-6543-------11---11-10-11-11------
g[---------------------------------------------------------------------
d[---------------------------------------------------------------------
a[---------------------------------------------------------------------
e[---------------------------------------------------------------------

                                          |            organs come in
e[----13---------------------------------------------------------------
b[--------14-----------------------------------------------------------
g[-----------15--------------------------------------------------------
d[--------------15-13-14(15)14-11--14-15----15--13-15-13-11------------
a[-----------------------------------------------------------13-11-13--
e[---------------------------------------------------------------------

           |         (couldnt figure out this lick)      |
e[------------------------------------16-------------------------------
b[---------------------------------------16----------------------------
g[-----------------------------????---------?????----------------------
d[---------------------11-13-------------------------------------------
a[-13-11-13------(11/13-------------------------------~13)-------------
e[---------------------------------------------------------------------
[ Tab from: http://www.guitartabs.cc/tabs/s/scofield_john/animal_farm_tab.html ]
                                                           |
e[---------------------------------------------------------------------
b[-----------------16(17)-14-------------------------------------------
g[----------13-15-------------15-13(1/4bend)---------------------------
d[--13---15----------------------------------15-14-13------------------
a[----------------------------------------------------~13--------------
e[---------------------------------------------------------------------

                                     |
e[-------------------13--13(14)13--------------------------------------
b[----------------14--------------14-----------------------------------
g[-15-15-15-15-15--------------------------------------13--15--13--15--
d[--------------------------------------15-15-15-15-15-----------------
a[---------------------------------------------------------------------
e[---------------------------------------------------------------------

                             |
e[----------13-15(16)-13----------------------------------------------- 
b[-------14---------------14------------------------------------------
g[-13-15--------------------------------------13-15--13-15(16)-13------
d[-----------------------------15-15-15-15-15--------------------------
a[---------------------------------------------------------------------
e[---------------------------------------------------------------------


                                  |
e[--------------13-16(17)-13-------------------------------------------
b[---------------------------14----------------------------------------
g[-15--15-13-15-------------------------------13-15--15(16)-13---------
d[--------------------------------------15-15--------------------------
a[---------------------------------------------------------------------
e[---------------------------------------------------------------------


     trill
e[---------------------------------------------------------------------
b[---------------------------------------------------------------------
g[---------------------------------------------------------------------
d[11h12p11h12--8--------11h12p11h12--8--------------------------------
a[---------------------------------------------------------------------
e[---------------------------------------------------------------------

goes through main part then a bunch of sound then
                      |                         |                     | 
e[---------------------------------------------------------------------
b[-------------------------------------------------------13------------
g[--------12---------------------------------------13-15-----15-13-15--
d[-12-14-----15-15-15----15-13-11-13------11---------------------------
a[------------------------------------13------13----------------------
e[---------------------------------------------------------------------

                             |
e[---------------------------------------------------------------------
b[----13--------------------------------------------------------------
g[-13------13---------------------------------------------------------
d[------------15-13--11------------------------------------------------
a[----------------------13-13------------------------------------------
e[---------------------------------------------------------------------

                               |               |
e[---------------------------------------------------------------------
b[-16-16-16-14-16-14----------------------14---------------------------
g[-------------------15--15-13------15-13-----15-----9-7-/11-----------
d[------------------------------------------------------------7-9------
a[---------------------------------------------------------------------
e[---------------------------------------------------------------------

fades out with sounds and trills and such

different way you can play the main riff 
e[---------------------------------------------------------------------
b[--8-9-8-6-------6----------------------------------------------------
g[----------8---8---8-6-----------------------------------------------
d[-----------------------8-8-6-8p6-------------------------------------
a[---------------------------------8p7p6-------------------------------
e[---------------------------------------8-----------------------------

second riff
e[---------------------------------------------------------------------
b[---------------------------------------------------------------------
g[--------3-1---0-1-0------------------3-1--0-1-0----------------------
d[-1-3-1---------------1--3------1-3-1------------1--------------------
a[---------------------------------------------------------------------
e[---------------------------------------------------------------------



any comments/complaints, email spoonman162@yahoo.com
please respond, i wanna know how i did with this.
  
-mitch bonkowski 2004
Comments