Scissor Sisters - Take Your Momma Out Correct Chords & Tabs

 

Take Your Momma Out Correct Chords & Tabs

Scissor Sisters Chords & Tabs

Version: 1 Type: Chords 5 ratings
1 star 2 stars 3 stars 4 stars 5 stars
comments

Take Your Momma Out Correct Chords

   
Scissor sisters- Take your mamma out (all night)

Star (*) section means that with each chord, play: mute then chord, mute then chord, then mute, then chord, then mute again then go into the regular strumming. (pattern being d d u d u d) 
D, Amaj (I think) C, G



These were the chords I used(for guitar newbies- not that Jono needs them)

D chord:
e|--------2----------------------------------|
B|--------3---------------------------------|
G|--------2---------------------------------|
D|--------0---------------------------------|
A|-------------------------------------------|
E|-------------------------------------------|
[ Tab from: http://www.guitartabs.cc/tabs/s/scissor_sisters/take_your_momma_out_correct_crd.html ]
Amaj (I think) Chord:
e|--------0----------------------------------|
B|--------2--------------------------------|
G|--------2--------------------------------|
D|--------2--------------------------------|
A|-------------------------------------------|
E|-------------------------------------------|

C Chord: 
e|----0------------------------------------|
B|----1------------------------------------|
G|----0-----------------------------------|
D|----2-----------------------------------|
A|----3------------------------------------|
E|-------------------------------------------|

G Chord:

e|--------3----------------------------------|
B|--------3---------------------------------|
G|--------0---------------------------------|
D|--------0---------------------------------|
A|--------2----------------------------------|
E|--------3---------------------------------|



Comments