Scissor Sisters - Skins Chords & Tabs

 

Skins Chords & Tabs

Scissor Sisters Chords & Tabs

Version: 1 Type: Bass Tab 0 ratings
1 star 2 stars 3 stars 4 stars 5 stars
comments

Skins Bass Tab

Again, this is song is funky as hell! It's after that whole scary scream bit on the album. 

G|-----------------------------------|
D|---------1----0--------------------|
A|-1---3------------------1--3----3--|
E|------------------1---3------------|
[ Tab from: http://www.guitartabs.cc/tabs/s/scissor_sisters/skins_btab.html ]
This repeats nearly all the way through the song, apart from the bridge which goes like this

G|-----------------------------------|
D|----------------1---3--4-3--1--3---|
A|-1---3--3---1----------------------|
E|-----------------------------------|

I've only been playing a month, so be kind!
Have fun 
Daiz xx
Comments