Schwervon - Swamp Thing Chords & Tabs

 

Swamp Thing Chords & Tabs

Schwervon Chords & Tabs

Version: 1 Type: Tab 0 ratings
1 star 2 stars 3 stars 4 stars 5 stars
comments

Swamp Thing Tab

"Swamp Thing"
SchwerVon!
from Poseur
tabbed by Torben W., 01/06/05
E-mail: matt-ad@gmx.net


-Intro-
e--------------------------------------------------------|
B--------------------------------------------------------|
G--------------------------------------------------------|
D--------------------------------------------------------|
A--0-0-3-4-0-0-3-2-0-0-3-4-0-----------------------------|
E--------------------------------------------------------|

e--------------------------------------------------------|
B--------------------------------------------------------|
G--------------------------------------------------------|
D--------------------------------------------------------|
A--0-0-3-4-0-0-3-2-0-0-3-4-0-------0-0-3-4-0-0-3-2-0-0-3-|
E----------------------------0-3-4-----------------------|


e--------------------------------------------------------|
B--------------------------------------------------------|
G---------------------------------------x-x-x------------|
D---------------------------------------x-x-x------------|
A--4-3-0-3-2-0-0-3-4-0-0-3-2-0-0-3-4-0--x-x-x------------|
E--------------------------------------------------------|

-Verse-
e--0--0--0--0--0--0--0--0--0--0--------------------------|
B--1--1--1--1--1--1--1--1--1--1--------------------------|
G--2--0--2--2--0--2--2--0--2--2--------------------------|
D--2--2--2--2--2--2--2--2--2--2--------------------------|   x4
A--0--3--0--0--3--0--0--3--0--0--------------------------|
E--------------------------------0-3-4-------------------|

e--0--0--0--0--0--0--0--0--0--0--0--0--------------------|
B--1--1--1--1--1--1--1--1--1--1--1--1--------------------|
G--2--2--2--2--2--2--2--2--2--2--2--2--------------------|
D--2--2--2--2--2--2--2--2--2--2--2--2--3-----------------|
A--0--0--0--0--0--0--0--0--0--0--0--0--------------------|
E--------------------------------------------------------|
[ Tab from: http://www.guitartabs.cc/tabs/s/schwervon/swamp_thing_tab.html ]
e--0--0--0--0--0--0--0--0--0--0--0--0----------------------|
B--1--1--1--1--1--1--1--1--1--1--1--1----------------------|
G--2--2--2--2--2--2--2--2--2--2--2--2--3-------------------|
D--2--2--2--2--2--2--2--2--2--2--2--2----------------------|
A--0--0--0--0--0--0--0--0--0--0--0--0----------------------|
E----------------------------------------------------------|

e--0--0--0--0--0--0--0--0--0--0--0--0--------------------|
B--1--1--1--1--1--1--1--1--1--1--1--1--------------------|
G--2--2--2--2--2--2--2--2--2--2--2--2--------------------|
D--2--2--2--2--2--2--2--2--2--2--2--2--3-----------------|
A--0--0--0--0--0--0--0--0--0--0--0--0--------------------|
E--------------------------------------------------------|

e--0--0--0--0--0--0--0--0--0--0--0--0--------------------|
B--1--1--1--1--1--1--1--1--1--1--1--1--------------------|
G--2--2--2--2--2--2--2--2--2--2--2--2--x--x--x-----------|
D--2--2--2--2--2--2--2--2--2--2--2--2--x--x--x-----------|
A--0--0--0--0--0--0--0--0--0--0--0--0--x--x--x-----------|
E--------------------------------------------------------|

e--0--0--0--0--0--0--0--0--0--0--------------------------|
B--1--1--1--1--1--1--1--1--1--1--------------------------|
G--2--0--2--2--0--2--2--0--2--2--------------------------|
D--2--2--2--2--2--2--2--2--2--2--------------------------|   x4
A--0--3--0--0--3--0--0--3--0--0--------------------------|
E--------------------------------0-3-4-------------------|

e--0--0--0--0--0--0--0--0--0--0--0--0--------------------|
B--1--1--1--1--1--1--1--1--1--1--1--1--------------------|
G--2--2--2--2--2--2--2--2--2--2--2--2--------------------|
D--2--2--2--2--2--2--2--2--2--2--2--2--------------------|
A--0--0--0--0--0--0--0--0--0--0--0--0--------------------|
E--------------------------------------------------------|

e--0--0--0--0--0--0--0--0--0--0--0--0--------------------|
B--1--1--1--1--1--1--1--1--1--1--1--1--------------------|
G--2--2--2--2--2--2--2--2--2--2--2--2--------------------|
D--2--2--2--2--2--2--2--2--2--2--2--2--------------------|
A--0--0--0--0--0--0--0--0--0--0--0--0--------------------|
E--------------------------------------------------------|

e--0--0--0--0--0--0--0--0--0--0--------------------------|
B--1--1--1--1--1--1--1--1--1--1--------------------------|
G--2--0--2--2--0--2--2--0--2--2--------------------------|
D--2--2--2--2--2--2--2--2--2--2--------------------------|   x4
A--0--3--0--0--3--0--0--3--0--0--------------------------|
E--------------------------------------------------------|


The parts when Matt plays whith a Tune are left out, but overall the main song must be right.
Comments