School Of Rock - School Of Rock Chords & Tabs

 

School Of Rock Chords & Tabs

School Of Rock Chords & Tabs

Version: 1 Type: Chords 8 ratings
1 star 2 stars 3 stars 4 stars 5 stars
comments

School Of Rock Chords

   
D                          C
Baby we was makin straight A's
G                            C                                      
But we were stuck in a dumb daze
D                            C                                                                       
Dont take much to memorize your part
G                           C
feel like ive been hipnotisize
D                          C
But then that magic man he come to town
 G                        C             
Wo-We he done spun my head around
D                           C
He said recess is in session
 G            C
Two and two make five
D                             C
And now baby oh im alive Wo-We i am alive

Corous
  D                           C                                              
And if you wanna be the teachers pet
  G                           C                       
Well baby you just better forget it
D                             C
Rock got no reason rock got no ryme
G
And now baby oh im alive Wo-We i am alive!!

(Dewies solo) 
 D                                C
Oh you know i was on the honor roll
G                             C
Got good grades aint got no soul
D                                 C
Raise my hand before i can speak my mind
G                                      C
I've been bitin my tounge too many times
D                                C
And then that magic man took you away
 D                                    C                
Do what magic man do not what magic man say
NC
Now may i please have the attention of the class 

Todays ass-signment (clears throat)

KICK SOME ASS!!

Corous
D                C
This is my final exam
G                   C
Now yall know who i am
D                        C
I might not be that perfect son
G                         C
But yall be rockin when im done 

OK ENJOY
[ Tab from: http://www.guitartabs.cc/tabs/s/school_of_rock/school_of_rock_crd.html ]
-----------------------------------------------------------------------------------------
------------------------------------11--------------------------------------------------
----------------------------11--9-------9--11------11--------------------------------
---11^--11---11(10)(9)-----------------------9-------11^-11^-9-11^--11(10)(9)
----------------------------------------------------------------------------------------
----------------------------------------------------------------------------------------

-------------------------------------------------------------------------------------
----------11------------------------------------------------------------------------
-11--9-------9--11-----------------------------------------------------------------
-----------------------9--11(10)(9)--11(10)(9)-9-11^11^11^11^11^11^11^
-------------------------------------------------------------------------------------
-------------------------------------------------------------------------------------
         vibrato
-----------------------------------------------------------------------------------------------
-----------------------------------------------11-----11--------------------------------------
----------------9(10)(9)--9--11-----11--9------9-------9--11-----------------------------
-11--9////------------------------9-------------------------------11--11(10)(9)-11(10)(9)
------------------------------------------------------------------------------------------------
-----------------------------------------------------------------------------------------------

--------------------------------------------------------------------------------------------
--------------------------------------------------------------------------------------------
------------11--9--11-----------------------------------------------11--------------------
9--11--9----------------9--11--------------------11------11---9-------9--11//---9--11
----------------------------------11--11(10)(9)-------9----------------------------------
--------------------------------------------------------------------------------------------

----------------------------------------------------------------------
-----------------------------------------------------------------------
-----------------------------------------------------------------------
-----------------------------------------------------------------------
9--11-----------------------------------------------------------------
--------9--11///------------------------------------------------------

Comments