School Of Rock - Mr Ss Song Chords & Tabs

 

Mr Ss Song Chords & Tabs

School Of Rock Chords & Tabs

Version: 2 Type: Tab 0 ratings
1 star 2 stars 3 stars 4 stars 5 stars
comments

Mr Ss Song Tab

song: Mr S's song
band: school of rock
by: skynyrdfreak
\i was watching this movie and i thought it looked pretty easy
so i tabbed it......here it is/

standard tuning

    ..::INRO::..
e|-----------------------------------------------------------------|
B|-----------------------------------------------------------------|
G|-----------------------------------------------------------------|
D|----4b---------4b------4b----------------------------------------|
A|-2---------2-------2---------------------------------------------|
E|-----------------------------------------------------------------|
[ Tab from: http://www.guitartabs.cc/tabs/s/school_of_rock/mr_ss_song_tab_ver_2.html ]
    ..::VERSE::.. (play the chords kinda fast)
E--------------------------------------------------12-12s-15-15-12--|
B-------------------------------------------------------------------|
G--7s-9--------7--------5-------4-------7s-9----------------------9-|
D--7s-9(14x)---7(16x)---5(8x)---4(8x)---7s-9(5x)------------------9-|
A--5s-7--------5--------3-------2-------5s-7----------------------7-|
E-------------------------------------------------------------------|

..::CHORUS::..(same thing as verse)
E--------------------------------------------------12-12s-15-15-12--|
B-------------------------------------------------------------------|
G--7s-9--------7--------5-------4-------7s-9------------------------|
D--7s-9(14x)---7(16x)---5(8x)---4(8x)---7s-9(5x)--------------------|
A--5s-7--------5--------3-------2-------5s-7------------------------|
E-------------------------------------------------------------------|

..::ENDING::..(drums play while ZaK  plays this)
E---------------------------------------|
B---------------------------------------|
G-------------------------1-------------|
D---6--4------------------2-------------|    !THATS IT!
A---------6--4--2--4------2-------------|
E-------------------------0-------------|


please rate!
Comments