School Of Rock - Mr Ss Song Chords & Tabs

 

Mr Ss Song Chords & Tabs

School Of Rock Chords & Tabs

Version: 1 Type: Tab 0 ratings
1 star 2 stars 3 stars 4 stars 5 stars
comments

Mr Ss Song Tab

   
-----------------------------------------------------------------------------
			     Mr.S's Song - School of Rock
-----------------------------------------------------------------------------
Tabbed by: Bassdrum
Email: zacvan@yahoo.com

Tuning: Standard

This is the song Mr.S wrote right on the spot in school of rock. This is a
little of everything in the song. I have improvised some, like when he
describes his guitar riff for the intro/verse. Watch the movie if not totally
correct it is pretty close.

(Verse)
Guitar 1
e|---------------------------------------------------------------------------|
B|---------------------------------------------------------------------------|
G|---------------------------------------------------------------------------|
D|----4b------4b------4b------(repeat throughout verse)----------------------|
A|-2-------2-------2---------------------------------------------------------|
E|---------------------------------------------------------------------------|

[ Tab from: http://www.guitartabs.cc/tabs/s/school_of_rock/mr_ss_song_tab.html ]
Guitar 2 (Wait until after big explosion for bass and guitar to come in)
e|---------------------------------------------------------------------------|
B|--------------------------------15-12-14-13--------------------------------|
G|-9-----7-----5-----4-----9-------------------9-----------------------------|
D|-9-x9--7-x9--5-x7--4-x7--9-x7----------------9-----------------------------|
A|-7-----5-----3-----2-----7-------------------7-----------------------------|
E|---------------------------------------------------------------------------|

Bass
G|---3-2-0-1-0-1--5----------------------------------------------------------|
D|-----------------4-30320121------------------------------------------------|
A|----------------------------3-2-0-1-0-1--5---------------------------------|
E|------------------------------------------4-30320121-----------------------|

Chorus
Guitar 2 (same as verse)
e|---------------------------------------------------------------------------|
B|--------------------------------15-12-14-13--------------------------------|
G|-9-----7-----5-----4-----9-------------------9-----------------------------|
D|-9-x9--7-x9--5-x7--4-x7--9-x7----------------9-----------------------------|
A|-7-----5-----3-----2-----7-------------------7-----------------------------|
E|---------------------------------------------------------------------------|

Bass
G|---3-2-0-1-0-1--5----------------------------------------------------------|
D|-----------------4-30320121------------------------------------------------|
A|----------------------------3-2-0-1-0-1--5---------------------------------|
E|------------------------------------------4-30320121-----------------------|

Order:

Verse
Chorus
Verse
Chorus


| /  slide up
| \  slide down
| h  hammer-on
| p  pull-off
| ~  vibrato
| +  harmonic
| x  Mute note
=============================================================================

Enjoy.
Comments