School Of Rock - Long Way To The Top Chords & Tabs

 

Long Way To The Top Chords & Tabs

School Of Rock Chords & Tabs

Version: 1 Type: Bass Tab 0 ratings
1 star 2 stars 3 stars 4 stars 5 stars
comments

Long Way To The Top Bass Tab

   
This was found by the "school of rock" sound track
best i could do
  Intro/verse
G:------------|
D:------------|      repeat
A:------------|(-?listen 2 song-)
E:-5--3-5--5--|
    Chorus
G:------------------------------|
D:------------------------------|
A:-3-3--------------------------|
E:-----5-3-5--5-3-55-3-1-0-3-3--|
[ Tab from: http://www.guitartabs.cc/tabs/s/school_of_rock/long_way_to_the_top_btab.html ]
might not be exact in chorus but its easy either way

play 'verse' during zach's guitar solo, nothing during drum solo, 'verse' during 
solo, 'verse' while 3 girls sing
  End-right after Jack says 'ok were done'
G:-----------|
D:-----------|
A:-----------|
E:-5-5--5-5--|
 Then when no one is playing...
E:-3/12/1-or-open-|
Comments