School Of Rock - Its A Long Way To The Top Chords & Tabs

 

Its A Long Way To The Top Chords & Tabs

School Of Rock Chords & Tabs

Version: 2 Type: Tab 0 ratings
1 star 2 stars 3 stars 4 stars 5 stars
comments

Its A Long Way To The Top Tab

   
b=bend
v=slight tremolo
[ Tab from: http://www.guitartabs.cc/tabs/s/school_of_rock/its_a_long_way_to_the_top_tab_ver_2.html ]
1|-----------------------------------------------------------------5b|
2|-----------------------------------------------5-5-5---5-5-5-5-5---|
3|-7b-7b-7b-7b-5--7b-7b-7b-7b-5v-----------------5-5-5---------------|
4|-------------------------------7-5-7-5-7-5-7-5-------7-------------|
5|-------------------------------------------------------------------|
6|-------------------------------------------------------------------|

1|-5-5-5------------------------------|
2|------------------------------------|
3|-------7-5---5-7b-7b-7b-5-------5---|
4|-----------7--------------7-5-7---7-|
5|------------------------------------|
6|------------------------------------|

Enjoy!! Rate this to tell me if u like it!!
Comments