School Of Rock - In The End Of Time Chords & Tabs

 

In The End Of Time Chords & Tabs

School Of Rock Chords & Tabs

Version: 2 Type: Tab 0 ratings
1 star 2 stars 3 stars 4 stars 5 stars
comments

In The End Of Time Tab

   
-----------------------------------------------------------------------------
	   In the End of Time - School of Rock
-----------------------------------------------------------------------------
Tabbed by: Zac
Email: zacvan@yahoo.com

b=bend

Tuning: Standard

Well, I wrote this when I was not logged in and It was wrong so I'm fixing it now while 
logged in. Some of it is improvised.


Guitar 1
e|--------------------------------------------------------------------------|
B|--------------------------------------------------------------------------|
G|--------------------------------------------------------------------------|
D|------5b---------5b---------5b----------------5b------(Throughout song)---|
A|--3---------3----------3----------------3---------------------------------|
E|--------------------------------------------------------------------------|
                       In the end of time....


Bass (Verse) (Come in right before well you think you'll be just fine)
G|---4-42-42-42--4-3-2-1-0--------------------------------------------------|
D|-------------------------4-3-2--------------------------------------------|
A|--------------------------------4-42-42-42--4-3-2-1-0---------------------|
E|------------------------------------------------------4-3-2---------------|

G|--------------------------------------------------------------------------|
D|--------------------------------------------------------------------------|
A|---------7x8----------------5x8--------------------------3x8--------------|
E|--------------------------------------------------------------------------|


Guitar 2 (Mini Solo) (Come in before chorus before he says no your not Hardcore)
e|--------------------------------------------------------------------------|
B|-----15-12-15-14-13-12----------------------------------------------------|
G|-----------------------15-14-13-12----------------------------------------|
D|-----------------------------------15-14-13-12----------------------------|
A|--------------------------------------------------------------------------|
E|--------------------------------------------------------------------------|

[ Tab from: http://www.guitartabs.cc/tabs/s/school_of_rock/in_the_end_of_time_tab_ver_2.html ]
Guitar 2 (chorus)
e|--------------------------------------------------------------------------|
B|--------------------------------------------------------------------------|
G|---------9----------------7----------------------------5------------------|
D|---------9-x9-------------7-x9-------------------------5-x8---------------|
A|---------7----------------5----------------------------3------------------|
E|--------------------------------------------------------------------------|
No you're  not hardcore...  Unless you live Hardcore...  But the legend


e|--------------------------------------------------------------------------|
B|----------------------------------15-12-14-13-12--------------------------|
G|---------5----------------9----------------------9------------------------|
D|---------5-x8-------------9-x8-------------------9------------------------|
A|---------2----------------7----------------------7------------------------|
E|--------------------------------------------------------------------------|
    Of the rent was way hardcore!                  Yeah!

Bass (Chorus)  (starting at Your not hardcore, stays with guitar with guitar basically.
G|--------------------------------------------------------------------------|
D|--------------------------------------------------------------------------|
A|---------7x8----------------5x8--------------------------3x8--------------|
E|--------------------------------------------------------------------------|


G|---------------------------------------------------------------------------|
D|---------------------------------------------------------------------------|
A|---------2x8---------------------------------------7x8---------------------|
E|---------------------------------------------------------------------------|

Orders:                      Bass                      Guitar
                             Verse                     Mini Solo
                             Chorus                    Chorus


Lyrics:
In the end of time,
there was a man who knew the road,
and the writing was written
on the stone.

In the ancient time,
an artist led the way,
but no one seemed to understand,
in his heart he knew,
the artist,
must be true,
but the legend of the rent was way past due.

(Bass comes in right here)
Well you think you'll be just fine,
without me but your MINE,
you think you can kick me out of the band
Well there's just one problem there,
the band is MINE.
How can you kick me out of what is mine?
(guitar does mini solo)

Well, Your not hardcore,
unless you live hardcore
but the legend of the rent was WAY hardcore!

Well there you go. Enjoy!
Comments