Scars Of Life - Watch Me Drown Chords & Tabs

 

Watch Me Drown Chords & Tabs

Scars Of Life Chords & Tabs

Version: 1 Type: Bass Tab 0 ratings
1 star 2 stars 3 stars 4 stars 5 stars
comments

Watch Me Drown Bass Tab

Scars of Life: Watch Me Drown *BASS*

~: vibrato
p: pull-off
<7>: harmonics

Heavy Riff (0:09)
G |--------------------------|
D |--------------------------|
A |------1-----3-----1-------|
D |--0-2---0-2---0-2---0-2~--|

G |----------------------------|
D |----------------------------|
A |------1-----3-----1---------|
D |--0-2---0-2---0-2---0-2222--|

Verse (0:28)
G |-----------------------------------------|
D |-----------------------------------------|
A |-------------------1------------------3--|
D |--2p0-00-2p0-00-00---2p0-00-2p0-00-00----|

G |-----------------------------------------|
D |-----------------------------------------|
A |-------------------1---------------------|
D |--2p0-00-2p0-00-00---2p0-00-2p0-00-00-2--|

Heavy Riff (1:05)
G |--------------------------|
D |--------------------------|
A |------1-----3-----1-------|
D |--0-2---0-2---0-2---0-2~--|

G |----------------------------|
D |----------------------------|
A |------1-----3-----1---------|
D |--0-2---0-2---0-2---0-2222--|

Chorus (1:23)
G |--------------------------|
D |--------------------------|
A |--------------------------|
D |--5-5~--3-3~--5-5~--7-7~--|

Verse (1:46)
G |-----------------------------------------|
D |-----------------------------------------|
A |-------------------1------------------3--|
D |--2p0-00-2p0-00-00---2p0-00-2p0-00-00----|

G |-----------------------------------------|
D |-----------------------------------------|
A |-------------------1---------------------|
D |--2p0-00-2p0-00-00---2p0-00-2p0-00-00-2--|

Heavy Riff (2:24)
G |--------------------------|
D |--------------------------|
A |------1-----3-----1-------|
D |--0-2---0-2---0-2---0-2~--|
[ Tab from: http://www.guitartabs.cc/tabs/s/scars_of_life/watch_me_drown_btab.html ]
G |----------------------------|
D |----------------------------|
A |------1-----3-----1---------|
D |--0-2---0-2---0-2---0-2222--|

Chorus (2:42)
G |--------------------------|
D |--------------------------|
A |--------------------------|
D |--5-5~--3-3~--5-5~--7-7~--|

Bridge (3:05) (3:08)
G |-----------|
D |-----------|
A |-----3-----|
D |--00---00--|
(3:10)
G |-----------------------------------------------|
D |-----------------------------------------------|
A |-----3--------------2h3----3-------------------|
D |--00---00--0-2-0-00-----00---00--0-22-33-55-3--|

Breakdown (3:28)
G |----------------------------------|
D |-------------------------<7>------|
A |---------------------<7>-----<7>--|
D |--000-000-000-000-00--------------|

G |-------------------------<7>------|
D |---------------------<7>-----<7>--|
A |----------------------------------|
D |--000-000-000-000-00--------------|

Heavy Riff (3:47)
G |--------------------------|
D |--------------------------|
A |------1-----3-----1-------|
D |--0-2---0-2---0-2---0-2~--|

G |----------------------------|
D |----------------------------|
A |------1-----3-----1---------|
D |--0-2---0-2---0-2---0-2222--|

Chorus (4:06)
G |--------------------------|
D |--------------------------|
A |--------------------------|
D |--5-5~--3-3~--5-5~--7-7~--|

Breakdown (4:24)
G |----------------------------------|
D |-------------------------<7>------|
A |---------------------<7>-----<7>--|
D |--000-000-000-000-00--------------|

G |-------------------------<7>------|
D |---------------------<7>-----<7>--|
A |----------------------------------|
D |--000-000-000-000-00--------------|

Any questions or comments feel free to email me at deathshadow519@hotmail.com
Comments