Scars Of Life - Mute Chords & Tabs

 

Mute Chords & Tabs

Scars Of Life Chords & Tabs

Version: 1 Type: Bass Tab 0 ratings
1 star 2 stars 3 stars 4 stars 5 stars
comments

Mute Bass Tab

   
Scars of Life: Mute *BASS*

Tuning: D A D G (Drop D)

~: vibrato
/:slide up
\:slide down

Intro (0:00)
G|-----------------------|
D|-----------------------|
A|-----------------------|
D|--55-55-5h6-55-55-5h6--|

Verse (0:08)
G|-------------------------------------|
D|-------------------------------------|
A|-----------------------------1-1-----|
D|--0-0-0-000-6-6-1~-0-0-0-000-----3~--|

Chorus (0:42)
G|---------------|
D|---------------|
A|---------------|
D|--0~-2~-6~-3~--|

Intro (0:59)
G|-----------------------|
D|-----------------------|
A|-----------------------|
D|--55-55-5h6-55-55-5h6--|

Verse (1:03)
G|-------------------------------------|
D|-------------------------------------|
A|-----------------------------1-1-----|
D|--0-0-0-000-6-6-1~-0-0-0-000-----3~--|

Chorus (1:20)
G|---------------|
D|---------------|
A|---------------|
D|--0~-2~-6~-3~--|

Heavy Riff (1:37)
G|--------------------------------|
D|--------------------------------|
A|--------------------------------|
D|--0000-0000-0000-0000-2~-3~-0~--|
[ Tab from: http://www.guitartabs.cc/tabs/s/scars_of_life/mute_btab.html ]
G|-----------------------------------------|
D|-----------------------------------------|
A|-----------------------------------------|
D|--2p0-2p0-5h7~-7p5p3-2p0-2p0-7h8~-8p7p5--|

Bridge (2:11)
G|---------------|
D|---------------|
A|--3~----3~-----|
D|-----0~----0~--|

G|----------------|
D|----------------|
A|--3~/7~\3~/8~\--|
D|----------------|

Intro (2:44)
G|-----------------------|
D|-----------------------|
A|-----------------------|
D|--55-55-5h6-55-55-5h6--|

Verse (2:53)
G|-------------------------------------|
D|-------------------------------------|
A|-----------------------------1-1-----|
D|--0-0-0-000-6-6-1~-0-0-0-000-----3~--|

Chorus (3:10)
G|---------------|
D|---------------|
A|---------------|
D|--0~-2~-6~-3~--|

Heavy Riff (3:27)
G|--------------------------------|
D|--------------------------------|
A|--------------------------------|
D|--0000-0000-0000-0000-2~-3~-0~--|

G|-----------------------------------------|
D|-----------------------------------------|
A|-----------------------------------------|
D|--2p0-2p0-5h7~-7p5p3-2p0-2p0-7h8~-8p7p5--|

Any questions or comments feel free to email me at deathshadow519@hotmail.com
Comments