Scars Of Life - Bullet With Your Name Chords & Tabs

 

Bullet With Your Name Chords & Tabs

Scars Of Life Chords & Tabs

Version: 1 Type: Tab 0 ratings
1 star 2 stars 3 stars 4 stars 5 stars
comments

Bullet With Your Name Tab

   
tune one whole step down d,c,g,f,a,d
[ Tab from: http://www.guitartabs.cc/tabs/s/scars_of_life/bullet_with_your_name_tab.html ]
d|------------------------\
a|------------------------ \
f|------------------------  \
g|------------------------   \
c|----8-7-----8-7---8-7---    \
d|0-0-----0-0-----0-------     \
                                x8
d|------------------------     /
a|------------------------    /
f|------------------------   / 
g|------------------------  /
c|----7-5-----7-5---3-5--- /
d|0-0-----0-0-----0-------/

if you have any questions e-mail me @ dave_janovjak_01@hotmail.com
i will probobally have the whole song later on. have fun.
Comments