Saydie - Vylet Chords & Tabs

 

Vylet Chords & Tabs

Saydie Chords & Tabs

Version: 1 Type: Bass Tab

Vylet Bass Tab

   
----------------------------------------------------------------------------
			    Vylet - Saydie
----------------------------------------------------------------------------

Tabbed By : Chai_0513
e-mail: hoverstroll_357@lycos.com

Tuning: Drop D

Intro:

G|-------------------------------------------------------------------------|
D|-------------------------------------------------------------------------|
A|-------------------------------------------------------------------------|
D|--8-8-8-7-7-5-0-(3x)---8-8-8-7-7-5---------------------------------------|
    
G|-------------------------------------------------------------------------|
D|-------------------------------------------------------------------------|
A|-------------------------------------------------------------------------|
D|--5-5-5--8-8-8-8--7p0-7h8-7p0-7h8-0-7h8p7--------------------------------|

Verse:

G|-------------------------------------------------------------------------|
D|-------------------------------------------------------------------------|
A|-------------------------------------------------------------------------|
D|--7h8-8-8-8-7-7-5-0-(7x)---7h8-8-8-8-7-7-5-------------------------------|

Chorus

G|-------------------------------------------------------------------------|
D|-------------------------------------------------------------------------|
A|-------------------------------------------------------------------------|
D|--5-5-5--8-8-8-8--7p0-7h8-7p0-7h8-0-7h8p7--------------------------------|

repeat verse
repeat chorus

G|----------     ----------------------------------------------------------|
D|----------     ----------------------------------------------------------|
A|----------     ----------------------------------------------------------|
D|--0-0-0-0-     -0-0-8p0-0-7-7-7---0-0-8p0-0-7-5-5-(8x)-------------------|
[ Tab from: http://www.guitartabs.cc/tabs/s/saydie/vylet_btab.html ]
G|-------------------------------------------------------------------------|
D|----------777--333--222------2-0-------555-222---------------------------|
A|-5-5---555----------------55-------333-----------555-33-5-0--------------|
D|-------------------------------------------------------------------------|

repeat chorus tapos...

G|-------------------------------------------------------------------------|
D|-------------------------------------------------------------------------|
A|-------------------------------------------------------------------------|
D|--8-8-8-8-8-8-8-8-3h5-(4x)-----------------------------------------------|

tapos uli...

G|-------------------------------------------------------------------------|
D|-------------------------------------------------------------------------|
A|-------------------------------------------------------------------------|
D|--7p0-7h8-7p0-7h8-7h8p7-(8x)---------------------------------------------|

G|-------------------------------------------------------------------------|
D|-------------------------------------------------------------------------|
A|-------------------------------------------------------------------------|
D|--8-8-8-8-8-8-8-8--7-7-7-7-7-7-7-7--5-5-5-5-5-5-5-5----------------------|
    . . . . . . . .  . . . . . . . .  . . . . . . . .    

Repeat chorus
Repeat ung sa verse
yehey!!! tapos na!!!

Hi ulit!!! hehehe ala lang! hehehe! dapat dati pa to kaso... hehehe!!! eloe 
ulit sa inyo!!! hehehe pangatlong tab ko na to. di ka lam kung tama mga 
pinaggagagawa ko pero auz nmn ung tunog. hehehe. tsuri kung may mistakes ah!
pakinggan niyo na lang ang music ng saydie!!! para masaya!!! hehehe

| /  slide up
| \  slide down
| h  hammer-on
| p  pull-off
| ~  vibrato
| +  harmonic
| .  Mute note
=============================================================