Saydie - Lush Chords & Tabs

 

Lush Chords & Tabs

Saydie Chords & Tabs

Version: 1 Type: Bass Tab

Lush Bass Tab

   
----------------------------------------------------------------------------
			   Lush - Saydie
----------------------------------------------------------------------------


Tabbed By: Chai_0513
e-mail: hoverstroll_357@lycos.com

Drop D tuning ( D-A-D-G )

Intro:

G--------------------------------------------------------------------------|
D------------------------------------------------------------------------|
A-------------------------------------------------------------------------|
D---9-9-9-9---9-9-9-9---5-5--5-5---7-7--7-7------------------------------|
  
Verse:

G--------------------------------------------------------------------------|
D------------------------------------------------------------------------|
A------------------------------------------------------------------------|
D---9-9-9-9---9-9-9-9---5-5--5-5---7-7--7-7------------------------------|
   
Chorus:

G--------------------------------------------------------------------------|
D----------------------------------------------------------------------|
A----------------------------------------------------7-5------------------|
D---------------9-9-9---7-7-5-7-5-7-5----9-9-9--------7-5-5--7-7-------|

G--------------------------------------------------------------------------|
D--------------------------------------------------------------------------|
A--------------------------------------------------------------------------|
D---5-5-7-7----------------------------------------------------------------|

ito ung part after ng chorus

G--------------------------------------------------------------------------|
D-----------------------------------------7----------------------7--------|
A-------------------------------------7-9----9-7/5----------7-9----9-/5--|
D-9-9-9-9-9---7-7-7-7-7---0-0-0-0-0-----------------0--0-0-0------------| 
                              . . . .                    . . . 
 she yelled so high... it scraped the sky
[ Tab from: http://www.guitartabs.cc/tabs/s/saydie/lush_btab.html ]
G-------------------------------------------------------------------------|
D-------------------------------------------------------------------------| 
A---9~--7~--9~--10~-------------------------------------------------------|
D-------------------------------------------------------------------------|
 
 pinky can you hear me? ...
 
G--------------------------------------------------------------------------|
D-------------9p7--------------------------------------------------------- |
A----------------9-7-10----------------------------------------------------|
D---9-9-7-9---------------7-7-x---5-5-x----------------------------------|

 scream... can you hear me...

G--------------------------------------------------------------------------|
D------------------------------------------7----------------------7-------|
A-------------------------------------7-9----9-7/5----------7-9----9-7/5-|
D-9-9-9-9-9---7-7-7-7-7---0-0-0-0-0-----------------0--0-0-0-------------|
                              . . . .                    . . .
 she yelled so high ...

G---------------------------------------------------------------------|
D---0-00-00-0-00-00-0-00-00-0-00-00------0----------------------------|
A---0-00-00-0-00-00-0-00-00-0-00-00------0----------------------------|
D---0-00-00-0-00-00-0-00-00-0-00-00------0----------------------------|
    . .. .. . .. .. . .. .. . .. ..

 pinky will i see you awake? ...

G--------------------------------------------------------------------------|
D--------------------------------------------------------------------------|
A--------------------------------------------------------------------------|
D-9-7-9-7-10---9-7-9-7-10---9-7-9-7-10---7-5-7---9-7-9-7-10---9-7-9-7-9-10-|
 
 no... where'd she go? ... 

G-------------------------------------------------------------------------|
D-------------------------------------------------------------------------|
A-------------------------------------------------------------------------|
D------9-7-9-7-10---12-12-12----------------------------------------------|


tapos... may lead guitar dito... 

G-------------------------------------------------------------------------|
D---------------------------------------------------------------------|
A------------------------------------------------7-5---------------------|
D-----------9-9-9---7-7-5-7-5-7-5----9-9-9--------7-5-5--7-7--5-5-7-7-|

balik verse (outro)

G-------------------------------------------------------------------------|
D-----------------------------------------------------------------------|
A-----------------------------------------------------------------------|
D---9-9-9-9---9-9-9-9---5-5--5-5---7-7--7-7-----------------------------|


first tym ko gumawa ng bass tab ito kaya kung may mistakes tsuri ah. eloe kina 
denise, sabrina, eman, jasmin, ciarra, at sa kung sino sino pa. hi sa apeiron, 
sa aiesi, sa raging melons. hehe. tsalamats po...

| /  slide up
| \  slide down
| h  hammer-on
| p  pull-off
| ~  vibrato
| +  harmonic
| .  Mute note
============================================================================