Saydie - Lie Chords & Tabs

 

Lie Chords & Tabs

Saydie Chords & Tabs

Version: 1 Type: Tab

Lie Tab

Tabbed by: vhandy jornadal, by dasmarinas Cavite
Email: vhandy_shit666@yahoo.com & blood_of_dick@yahoo.com
Message:
                      Supportahan nyo ung tabbed ko tama po i2
          Yaan po ung kapa ko at napanood ko din ung nagpa gig kami
          Lagyan nyo naman ng rate!!!!!!!

Tuning: Drop d, Regular Tuning

. Palm mute
/ Slide
\ Slide back
x Dead string

Intro-part 1
                           Guitar 1
E--------------------------------------------------------------------------------------|
B--------------------------------------- ----------------------------------------------|
G------------------7(2x)-4(2x)-------4(2x)------4(2x)----------------------------------|
D----------55--------------------5(2x)------ 5(2x)------- 7---5------------------------|
A----------55--------------------------------------------------------------------------|
D----------55--------------------------------------------------------------------------|
                . .
Pagkatapos:
E--------------------------------------------------------------------------------------|
B--------------------------------------------------------------------------------------|
G-------------------------------------------------------------77--77/99--99/1111--\77--|
D----------555--77799/11-11/12-12\11h12----55---xx--xx/xx--xx/xx-----\xx--------------|
A----------555--77799/11-11/12-12\11h12----55---55--55/77--77/99-----\55--------------|
D----------555--77799/11-11/12-12\11h12----55---55--55/77--77/99-----\55--------------|

VERSE 1:
                               Guitar 1
E--------------------------------------------------------------------------------------|
B--------------------------------------- ----------------------------------------------|
G------------------7(2x)-4(2x)-------4(2x)------4(2x)----------------------------------|
D----------55--------------------5(2x)------ 5(2x)------- 7---5------------------------|
A----------55--------------------------------------------------------------------------|
D----------55--------------------------------------------------------------------------|
                . .
CHORUS:1
[ Tab from: http://www.guitartabs.cc/tabs/s/saydie/lie_tab.html ]
E--------------------------------------------------------------------------------------|
B--------------------------------------------------------------------------------------|
G-------------------------------------------------------------77--77/99--99/1111--\77--|
D----------555--77799/11-11/12-12\11h12----55---xx--xx/xx--xx/xx-----\xx--------------|
A----------555--77799/11-11/12-12\11h12----55---55--55/77--77/99-----\55--------------|
D----------555--77799/11-11/12-12\11h12----55---55--55/77--77/99-----\55--------------|

VERSE 2:
                               Guitar 1
E--------------------------------------------------------------------------------------|
B--------------------------------------- ----------------------------------------------|
G------------------7(2x)-4(2x)-------4(2x)------4(2x)----------------------------------|
D----------55--------------------5(2x)------ 5(2x)------- 7---5------------------------|
A----------55--------------------------------------------------------------------------|
D----------55--------------------------------------------------------------------------|
                . .


CHORUS:2

E--------------------------------------------------------------------------------------|
B--------------------------------------------------------------------------------------|
G-------------------------------------------------------------77--77/99--99/1111--\77--|
D----------555--77799/11-11/12-12\11h12----55---xx--xx/xx--xx/xx-----\xx--------------|
A----------555--77799/11-11/12-12\11h12----55---55--55/77--77/99-----\55--------------|
D----------555--77799/11-11/12-12\11h12----55---55--55/77--77/99-----\55--------------|

Ganon din bumagal Lang  at nadagdagan

VERSE 3:

                               Guitar 1
E--------------------------------------------------|
B--------------------------------5-----------------|
G------------------7-4------ 4---4--5--------------|
D----------55-------------5----5------5-------55---|
A----------55----------------------------------55--|
D----------55----------------------------------55--|

Cencya na kyo kung d pa tapos next time nlang po ung iba pero tama po i2 100% po accurate po i2

Email nyo nalang ako