Saydie - Krolithikah Chords & Tabs

 

Krolithikah Chords & Tabs

Saydie Chords & Tabs

Version: 1 Type: Tab

Krolithikah Tab

Title: Krolithikah
Track: #5
Elaps Time: 4:12
Artist: Saydie
Tabber: KulotzkikabudelZ
E-mail: crossanarchy@yahoo.com

Legend:

 x - Dead string
 PM - Palm Mute
 / - Slide
 h - hammer

Note: This is my 1st time doing this tab Please give some rate for this.
I will accept some corrections to this tab.

Intro:

Much better if you use metal zone effects in this.

Guitar 1:

e----------------------------------|
B----------------------------------|
G---9999-x-9999-x-9999-x-9999------|
D---9999-x-9999-x-9999-x-9999------|
A---7777-x-7777-x-7777-x-7777------|
D----------------------------------|

then

Guitar 1 and 2:

e----------------------------------|
B----------------------------------|
G-------5-4-5-4--------------------|[2x]
D--22---5-4-5-4--------------------|
A--22---3-2-3-2--------------------|
D--22------------------------------|

e----------------------------------|
B----------------------------------|
G----55555--77777------------------|
D----55555--77777------------------|
A----33333--55555------------------|
D----------------------------------|
 [Repeat]

e-------------0---------------------|
B-------------0---------------------|
G-------------0---------------------|
D--222222-----0---------------------|[2x]
A--222222-----0-{let ring}----------|
D--222222-----0---------------------|
PM.......

Guitar 1:

e----------------------------------|
B----------------------------------|
G--------555----------777----------|
D------------[2x]---------[2x]-----|
A----333----------555--------------|
D----------------------------------|

Guitar 2:

e----------------------------------|
B----------------------------------|
G----55555--77777------------------|
D----55555--77777------------------|
A----33333--55555------------------|
D----------------------------------|


Guitar 1 & 2:

e-----------0----------------------|
B-----------0----------------------|
G-----------0----------------------|
D--2222-----0----------------------|[2x]
A--2222-----0-{let ring}-----------|
D--2222-----0----------------------|
PM.....
Guitar 1:

e----------------------------------|
B----------------------------------|
G--------555----------777----------|
D------------[2x]---------[2x]-----|
A----333----------555--------------|
D----------------------------------|

Guitar 2:

e----------------------------------|
B----------------------------------|
G----55555--77777------------------|
D----55555--77777------------------|
A----33333--55555------------------|
D----------------------------------|

and

Guitar 1:

e----------------------------------|
B----------------------------------|
G---9999-x-9999-x-9999-x-9999------|
D---9999-x-9999-x-9999-x-9999------|
A---7777-x-7777-x-7777-x-7777------|
D----------------------------------|

verse:

I don't know the the other part of guitar 1 so i just do this.

Guitar 2:

e----------------0-3h5-------------|
B----------------------------------|
G----------------------------------|
D--22-22-22-222--------------------|
A--22-22-22-222--------------------|
D--22-22-22-222--------------------|
PM.............
                                    [4x]

e--------------55-3-2h3------------|
B----------------------------------|
G----------------------------------|
D--22-22-22------------------------|
A--22-22-22------------------------|
D--22-22-22------------------------|
PM.........

Chorus:

Guitar 2:

e----------------------------------|
B----------------------------------|
G-------5-4-5-4--------------------|[2x]
D--22---5-4-5-4--------------------|
A--22---3-2-3-2--------------------|
D--22------------------------------|

e----------------------------------|
B----------------------------------|
G----55555--77777------------------|
D----55555--77777------------------|
A----33333--55555------------------|
D----------------------------------|

e----------------------------------|
B----------------------------------|
G-------5-4-5-4--------------------|[2x]
D--22---5-4-5-4--------------------|
A--22---3-2-3-2--------------------|
D--22------------------------------|
[ Tab from: http://www.guitartabs.cc/tabs/s/saydie/krolithikah_tab.html ]
e----------------------------------|
B----------------------------------|
G----55555--77777------------------|
D----55555--77777------------------|
A----33333--55555------------------|
D----------------------------------|

Guitar 1:

e--7-0-8/10-8-77-0-8/10-8-----------------(0/)-|
B---------------------------33333--55-8-7------|
G----------------------------------------------|
D----------------------------------------------|
A----------------------------------------------|
D----------------------------------------------|


Chorus will Last at this

e----------------------------------|
B----------------------------------|
G----------------------------------|
D--2-------------------------------|
A--2--{Let Ring}-------------------|
D--2-------------------------------|

Repeat Verse:
Repeat Chorus:


Bridge:

Guitar 1 and 2:

e----------------------------------|
B----------------------------------|
G----------------------------------|
D--2-------------7-9-10------------|
A--2-{Let Ring}--7-9-10------------|
D--2-------------7-9-10------------|
                                     [2x]
e----------------------------------|
B----------------------------------|
G----------------------------------|
D--2---2---2-----------------------|
A--2---2---2-----------------------|
D--2---2---2-----------------------|

Then

e----------------------------------|
B----------------------------------|
G----------------------------------|
D--2-------------------------------|
A--2-{Let Ring}--------------------|
D--2-------------------------------|

Guitar 1: Clean
Strumming

e----------------------------------|
B----------------------------------|
G--------------------5-------------|
D--22-55-44-5-4------5--55-44-5-4--|
A--22----------5-----3-----------5-|
D--22------------------------------|


e----------------------------------|
B----------------------------------|
G----------7-----------------------|
D--5-------7--77-55/7-9-7-5--------|
A--5-[8x]--5-----------------------|
D--5-------------------------------|

Then repeat it with guitar 2

Guitar 2 do this distorted

e----------------------------------|
B----------------------------------|
G------5-------7-7-----------------|
D--2---5---5---7-7-----------------|
A--2---3---5---5-5-----------------|
D--2-------5-----------------------|
PM..............Then Strum

Guitar 1 & 2: Distorted

e------------------------------------------      e-------|
B------------------------------------------      B-------|
G---------5----5---------------------------      G--2----|
D--2----2-5-{}-5--5----7-5-2h5-0-5-4-4h5--- [2x] D--2-{}-|
A--2-{}-2-3----3--5-{}-------------------5-      A--2----|
D--2----2---------5------------------------      D--2----|

Chorus II

Guitar 1 & 2: Distorted

e----------------------------------|
B----------------------------------|
G------5-------7-------------------|
D--2---5---5---7-------------------|[Strumming]
A--2---3---5---5-------------------|
D--2-------5-----------------------|


Guitar 2:

e--------------------------------------------|
B--------------------------------------------|
G-----------------------5--------------------|
D--2----10----5----0----5--[Strumming]----2--|
A--2----10----5----0-or-3-----------------2--|
D--2----10----5----0----------------------2--|

Then

Guitar 1

e----------------------------------|
B----------------------------------|
G---9999-x-9999-x-9999-x-9999------|
D---9999-x-9999-x-9999-x-9999------|
A---7777-x-7777-x-7777-x-7777------|
D----------------------------------|

Guitar 1 & 2: Distorted

e------------------------------------------|
B------------------------------------------|
G---------5----5---------------------------|
D--2----2-5-{}-5--5----7-5-2h5-0-5-4-4h5---|
A--2-{}-2-3----3--5-{}-------------------5-|
D--2----2---------5------------------------|

Both Guitars End at This

e------|
B------|
G------|
D---2--|
A---2--|
D---2--|

-There you have it Krolithikah of Saydie. I Hope you like this tab. Enjoy Playing!
And if you had a comments or suggestions just E-mail me @ crossanarchy@yahoo.com.