Saxon - Sailing To America Chords & Tabs

 

Sailing To America Chords & Tabs

Saxon Chords & Tabs

Version: 1 Type: Bass Tab 0 ratings
1 star 2 stars 3 stars 4 stars 5 stars
comments

Sailing To America Bass Tab

Intro:
|------------------------------------------|
|------------------------------------------|
|-1~~~-1~~~-33~~~-3~~~~-331~~~-1~~~-1~~~-3-|
|------------------------------------------|

Pre-Verse:
|-----------------|
|-----------------|
|-1-1-1-1-3-3-3-3-|
|-----------------|

Verse 
|-----------------|
|-3-3-3-3-5-5-5-5-|
|-----------------|
|-----------------|

Variation1:                     Variation2:
|-----------------------------|-----------3--------57/975-----------|
|-3-3-3-3h4-5-5-5-5-4-3-3-3-3-|-3-3-3-3h5---5-5-5h7-------7-3-3-3-3-|
|-----------------------------|-------------------------------------|
|-----------------------------|-------------------------------------|

Chorus:
|-----------------|
|-----------------|
|-1-1-1-1-3-3-3-3-| 4x
|-----------------|
[ Tab from: http://www.guitartabs.cc/tabs/s/saxon/sailing_to_america_btab.html ]
Bridge: (01:23)
|-----------------|
|-----------------|
|-----------------|
|-1-1-1-1-3-3-3-3-| 

Verse:  (01:29)
Chorus: (02:01:) 4x

Chorus2: 
|--------------------------------|
|--------------------------------|
|--------------------------------|
|-1-33~-11~-33~-11~-33~-11~-3333-|

During Solo
|---------2-2-2-2-|
|-3-3-3-3---------|
|-----------------|
|-----------------| 

|-------------|
|-------------|
|-1~-3~-1~-3~-|
|-------------|

Verse:  (03:42) 
Chorus: (04:07)
Outro:  (04:32)

|-------------------------------|-------------|
|-------------------------------|-------------|
|-1--1~1--3~3--3~3--1~1-1~1-3~3-|-3-2-1-3-2-1-|
|-------------------------------|-------------|

Chorus: (04:45) 2x
Outro2: (04:54)

|------------|
|------------|
|-3~-3~---3\-|
|------------|
Comments