Saw Doctors - Midnight Express Chords & Tabs

 

Midnight Express Chords & Tabs

Saw Doctors Chords & Tabs

Version: 1 Type: Tab 0 ratings
1 star 2 stars 3 stars 4 stars 5 stars
comments

Midnight Express Tab

   
The Saw Doctors - Midnight Express

Tabbed by: hazy_jane

Tuning:EADGBe

Chords used:
E=x79997
B=799877
A=577855

Strumming Pattern:(\=downstroke /=upstroke)
1   2   3   4   |
\ \/\ \/\ \/\/\/

Each chord lasts one bar, strummed in the above
rhythm.

Verse 1:
   E
So far from home,
   B
My cry of pain, 
      E               B
Won't ease my longing heart,
  E
I miss you mam,
  B
I miss you dad,
    E        B
I'm falling apart,
         E             B
Now when I look out my window,
          E              B
Through a winter evening rain,
  E                    B
I see the same sky you see at home,
    E                B
Somehow it's not the same,

Chorus:
             E              B
Yeah and I'm longing to get home,
      E                    B 
How I miss all your loving smiles,
    A                 B 
And Oh how the winter bites,
               E
When you're so far away,
       B
For so long,
For far too long,

Fill 1:(actually played on a flagolet)
[ Tab from: http://www.guitartabs.cc/tabs/s/saw_doctors/midnight_express_tab.html ]
e|-7--4----4--7--4----4----------4-------------------|
B|-------7----------7---5------7---7-----------------|
G|---------------------------------------------------|
D|---------------------------------------------------|
A|---------------------------------------------------|
E|---------------------------------------------------|

Verse 2:(chords as verse 1)

Is my girl still there?
Does she visit you?
Is she still as pretty as ever?
Does she ask for me?
'Cos I long for her,
I need her more than ever,
Tell her it won't be long,
Until I'm home to stay,
And I won't ever go again, 
By her side I'll always stay,

Chorus

Outro:

e|-7--4----4--7--4----4----------4-------------------|    | 
B|-------7----------7---5------7---7-----------------|----|
G|---------------------------------------------------| X2 |
D|---------------------------------------------------|____|
A|---------------------------------------------------|    |
E|---------------------------------------------------|    |

e|-9------12-11----12-11--9--7----9--7-----7---------|          |
B|--------------------------------------9------------|----------|
G|---------------------------------------------------|Repeat,   |
D|---------------------------------------------------|Fades out.|
A|---------------------------------------------------|----------|
E|---------------------------------------------------|          |
Comments