Saves The Day - Tomorrow Too Late Chords & Tabs

 

Tomorrow Too Late Chords & Tabs

Saves The Day Chords & Tabs

Version: 2 Type: Tab 0 ratings
1 star 2 stars 3 stars 4 stars 5 stars
comments

Tomorrow Too Late Tab

   
Saves the Day - Tomorrow Too Late

  Strum with Thumb
e|-8---7---7--------------------------8---7---7---------------|
B|-8---6---6---4--3------6---8---6----8---6---6---4--3------6-|
G|-8---7---7---3--4--5---5---7---5----8---7---7---3--4--5---5-|
D|-6---6---5---5--5--6---6---8---6----6---6---5---5--5--6---6-|
A|-------------3--5--6---5---6---5----------------3--5--6---5-|
E|----------------3--4-------------------------------3--4-----|

e|-------------------------------------------------------------|
B|-8-8-88--8-8--3-3-4-4---8-6-3-8-888-6-8-888-8-8-8-8--3-3-4-4-|
G|-7-7-77--7-7--4-4-5-5---7-5-4-5-555-5-7-777-7-7-7-7--4-4-5-5-|
D|-8-8-88--8-8--5-5-6-6---8-6-5-6-666-6-8-888-8-8-8-8--5-5-6-6-|
A|-6-6-66--6-6--5-5-6-6---6-5-5-------5-6-666-8-8-8-8--5-5-6-6-|
E|--------------3-3-4-4-------3------------------------3-3-4-4-|

e|-8---7---7--------------------------8---7---7---------------|
B|-8---6---6---4--3------6---8---6----8---6---6---4--3------6-|
G|-8---7---7---3--4--5---5---7---5----8---7---7---3--4--5---5-|
D|-6---6---5---5--5--6---6---8---6----6---6---5---5--5--6---6-|
A|-------------3--5--6---5---6---5----------------3--5--6---5-|
E|----------------3--4-------------------------------3--4-----|

  Switch to Distortion
e|---------------------------------------|
B|-8-8-8-8-8-8-8-3-3-4-4---8-6-3-8-888-6-|
G|-7-7-7-7-7-7-7-4-4-5-5---7-5-4-5-555-5-|
D|-8-8-8-8-8-8-8-5-5-6-6---8-6-5-6-666-6-|
A|-6-6-6-6-6-6-6-5-5-6-6---6-5-5-------5-|
E|---------------3-3-4-4-------3---------|

e|---------------------------------------|
B|-8-8-8-8-8-8-8-3-3-4-4---8-6-3-8-888-6-|
G|-7-7-7-7-7-7-7-4-4-5-5---7-5-4-5-555-5-|
D|-8-8-8-8-8-8-8-5-5-6-6---8-6-5-6-666-6-|
A|-6-6-6-6-6-6-6-5-5-6-6---6-5-5-------5-|
e|---------------3-3-4-4-------3---------|

e|-------------------------------------------------------------|
B|-8-8-8-8-8-8-8-3-3-4-4-3-3-4-4-8-8-8-4---4-4-3-3-4-4-3-3-4-4-|
G|-7-7-7-7-7-7-7-4-4-5-5-4-4-5-5-7-7-7-3---3-3-4-4-5-5-4-4-5-5-|
D|-8-8-8-8-8-8-8-5-5-6-6-5-5-6-6-8-8-8-5---5-5-5-5-6-6-5-5-6-6-|
A|-6-6-6-6-6-6-6-5-5-6-6-5-5-6-6-6-6-6-3---3-3-5-5-6-6-5-5-6-6-|
E|---------------3-3-4-4-3-3-4-4---------------3-3-4-4-3-3-4-4-|

e|----------------------------------|
B|-8-8-8-4---4-4-3-3-4-4-4-4--8-6-3-|
G|-7-7-7-3---3-3-4-4-5-5-5-5--7-5-4-|
D|-8-8-8-5---5-5-5-5-6-6-6-6--8-6-5-|
A|-6-6-6-3---3-3-5-5-6-6-6-6--6-5-5-|
E|---------------3-3-4-4-4-4------3-|

  Solo
e|--------------10^---10^---10^-8--10^-8-|
B|-8-6-----------------------------------|
G|------8/5p0----------------------------|
D|---------------------------------------|
A|---------------------------------------|
E|---------------------------------------|

e|-10^---10^---10^-----------8-10^---|
B|-----------------8--8-8-11-------8-|
G|-----------------------------------|
D|-----------------------------------|
A|-----------------------------------|
E|-----------------------------------|
[ Tab from: http://www.guitartabs.cc/tabs/s/saves_the_day/tomorrow_too_late_tab_ver_2.html ]
e|---------------------------------------|
B|-8-8-8-8-8-8-8-3-3-4-4---8-6-3-8-888-6-|
G|-7-7-7-7-7-7-7-4-4-5-5---7-5-4-5-555-5-|
D|-8-8-8-8-8-8-8-5-5-6-6---8-6-5-6-666-6-|
A|-6-6-6-6-6-6-6-5-5-6-6---6-5-5-------5-|
E|---------------3-3-4-4-------3---------|

e|---------------------------------------|
B|-8-8-8-8-8-8-8-3-3-4-4---8-6-3-8-888-6-|
G|-7-7-7-7-7-7-7-4-4-5-5---7-5-4-5-555-5-|
D|-8-8-8-8-8-8-8-5-5-6-6---8-6-5-6-666-6-|
A|-6-6-6-6-6-6-6-5-5-6-6---6-5-5-------5-|
E|---------------3-3-4-4-------3---------|

e|-------------------------------------------------------------|
B|-8-8-8-8-8-8-8-3-3-4-4-3-3-4-4-8-8-8-4---4-4-3-3-4-4-3-3-4-4-|
G|-7-7-7-7-7-7-7-4-4-5-5-4-4-5-5-7-7-7-3---3-3-4-4-5-5-4-4-5-5-|
D|-8-8-8-8-8-8-8-5-5-6-6-5-5-6-6-8-8-8-5---5-5-5-5-6-6-5-5-6-6-|
A|-6-6-6-6-6-6-6-5-5-6-6-5-5-6-6-6-6-6-3---3-3-5-5-6-6-5-5-6-6-|
E|---------------3-3-4-4-3-3-4-4---------------3-3-4-4-3-3-4-4-|

e|---------------------------------------------------------------|
B|-8-8-8-4---4-4-3-3-4-4-3-3-4-4-8-8-8-4---4-4-3-3-4-4-4-4-4-4-4-|
G|-7-7-7-3---3-3-4-4-5-5-4-4-5-5-7-7-7-3---3-3-4-4-5-5-5-5-5-5-5-|
D|-8-8-8-5---5-5-5-5-6-6-5-5-6-6-8-8-8-5---5-5-5-5-6-6-6-6-6-6-6-|
A|-6-6-6-3---3-3-5-5-6-6-5-5-6-6-6-6-6-3---3-3-5-5-6-6-6-6-6-6-6-|
E|---------------3-3-4-4-3-3-4-4---------------3-3-4-4-4-4-4-4-4-|

  Solo
e|--------------------|
B|--------------------|
G|-----5-7-7^-7-5-----|
D|-5-6------------6-5-|
A|--------------------|
E|--------------------|

e|---------------------------------------|
B|-8-8-8-8-8-8-8-3-3-4-4---8-6-3-8-888-6-|
G|-7-7-7-7-7-7-7-4-4-5-5---7-5-4-5-555-5-|
D|-8-8-8-8-8-8-8-5-5-6-6---8-6-5-6-666-6-|
A|-6-6-6-6-6-6-6-5-5-6-6---6-5-5-------5-|
e|---------------3-3-4-4-------3---------|

e|---------------------------------------|
B|-8-8-8-8-8-8-8-3-3-4-4---8-6-3-8-888-6-|
G|-7-7-7-7-7-7-7-4-4-5-5---7-5-4-5-555-5-|
D|-8-8-8-8-8-8-8-5-5-6-6---8-6-5-6-666-6-|
A|-6-6-6-6-6-6-6-5-5-6-6---6-5-5-------5-|
E|---------------3-3-4-4-------3---------|

e|---------------------------------------|
B|-8-8-8-8-8-8-8-3-3-4-4---8-6-3-8-888-6-|
G|-7-7-7-7-7-7-7-4-4-5-5---7-5-4-5-555-5-|
D|-8-8-8-8-8-8-8-5-5-6-6---8-6-5-6-666-6-|
A|-6-6-6-6-6-6-6-5-5-6-6---6-5-5-------5-|
E|---------------3-3-4-4-------3---------|

e|---------------------------------------|
B|-8-8-8-8-8-8-8-3-3-4-4---8-6-3-8-888-6-|
G|-7-7-7-7-7-7-7-4-4-5-5---7-5-4-5-555-5-|
D|-8-8-8-8-8-8-8-5-5-6-6---8-6-5-6-666-6-|
A|-6-6-6-6-6-6-6-5-5-6-6---6-5-5-------5-|
e|---------------3-3-4-4-------3---------|

e|---------------------------|
B|-8-8-8-8-8-8-8-3-3-4-4-4-4-|
G|-7-7-7-7-7-7-7-4-4-5-5-5-5-|
D|-8-8-8-8-8-8-8-5-5-6-6-6-6-|
A|-6-6-6-6-6-6-6-5-5-6-6-6-6-|
E|---------------3-3-4-4-4-4-|

  Switch Back to Clean
e|----------------------------------------------------3-----------1-|
B|-8-6-3-8-888-6-8-8-88--8-8--3-3-4-4---8-6-3-----1-----1--------1--|
G|-7-5-4-5-555-5-7-7-77--7-7--4-4-5-5---7-5-4---1---1-----1-----1---|
D|-8-6-5-6-666-6-8-8-88--8-8--5-5-6-6---8-6-5-3-------------3--0----|
A|-4-5-5-------5-6-6-66--6-6--5-5-6-6---6-5-5-----------------------|
E|-----3----------------------3-3-4-4-------3-----------------------|
Comments