Saves The Day - Through Being Cool Chords & Tabs

 

Through Being Cool Chords & Tabs

Saves The Day Chords & Tabs

Version: 1 Type: Tab 0 ratings
1 star 2 stars 3 stars 4 stars 5 stars
comments

Through Being Cool Tab

THROUGH BEING COOL - Saves The Day

By: Andrew Miller: Riverfenix61385@aol.com

  {Bass Intro}
E-------------------------------------------------------------------
B-------------------------------------------------------------------
G-------------------------------------------------------------------
D-5--5--5-5--5-5--5-5-5-5-5--3--5--5--5-5--5-5--5-5-5-5-5-----------
A-------------------------------------------------------------------
E-------------------------------------------------------------------

{Rhythm Figure 1}
E-------------------------------------------------------
B-------------------------------------------------------
G-------------------------------------------------------
D-5--5---------------5-5---5-5-5---5-5-5--5-5-5---------
A-5--5---------------5-5---5-5-5---5-5-5--5-5-5---------
E-3--3---------------3-3---3-3-3---3-3-3--3-3-3---------

{Rhythm Figure 2}
E-------------------------------------------------------------------
B-------------------------------------------------------------------
G------------3--3-------------------3--3-----------------5--5-------
D-------5--5-------5--5--------5--5------5--5-------5--5------5--5--
A---------------------------------------------5--5------------------
E-3--3------------------3--3----------------------------------------

E-------------------------------------------------------------------
B-------------------------------------------------------------------
G------------3--3-----------------3--3------------------3--3--------
D-------5--5------5--5-------3--3-------3--3-------3--3------3--3---
A-6--6------------------1--1------------------1--1------------------
E-------------------------------------------------------------------

E-----------------------------------------
B-----------------------3-h-4-p-3---------
G-5-5-5--5-5-5--8-8--8------------5-------
D-5-5-5--5-5-5--8-8--8--------------------
A-3-3-3--3-3-3--6-6--6--------------------
E-----------------------------------------

E-------------------------------------------------------------------
B-------------------------------------------------------------------
G------------3--3-------------------3--3-----------------5--5-------
D-------5--5-------5--5--------5--5------5--5-------5--5------5--5--
A---------------------------------------------5--5------------------
E-3--3------------------3--3----------------------------------------

E-------------------------------------------------------------------
B-------------------------------------------------------------------
G------------3--3-----------------3--3------------------3--3--------
D-------5--5------5--5-------3--3-------3--3-------3--3------3--3---
A-6--6------------------1--1------------------1--1------------------
E-------------------------------------------------------------------

E------------------------------------
B------------------------------------
G-5-5-5--5-5-5--8-8-8--8-8-8---------
D-5-5-5--5-5-5--8-8-8--8-8-8---------
A-3-3-3--3-3-3--6-6-6--6-6-6---------
E------------------------------------

(Play Rhythm Figure 2)
You know what?
The next time you see Nick
Tell him I'm gonna stick some needles in his face
And watch him on his knees
Watch him when he sees that I'm not fooling
[ Tab from: http://www.guitartabs.cc/tabs/s/saves_the_day/through_being_cool_tab.html ]
{Rhythm Figure 3}
E-------------------------------------------------------------------
B-------------------------------------------------------------------
G----------------------5-5--5-5--5-5--5-5---8-8--8-8--8-8--8-8------
D-8-8--8-8--8-8--8-8---5-5--5-5--5-5--5-5---8-8--8-8--8-8--8-8------
A-8-8--8-8--8-8--8-8---3-3--3-3--3-3--3-3---6-6--6-6--6-6--6-6------
E-6-6--6-6--6-6--6-6------------------------------------------------

E------------------------
B------------------------
G--------8---------------
D-8-8-8--8--8-8-8--------
A-8-8-8--6--8-8-8--------
E-6-6-6-----6-6-6--------

(Play Rhythm Figure 4)
Cause I'm through being cool
And he keeps telling everyone about me
Like how I'm such a fool and that I'm so deceptive

{Rhythm Figure 4}
E-------------------------
B------3-h-4-p-3----------
G-----------------5-p-3---
D-5-5---------------------
A-5-5---------------------
E-3-3---------------------

(Play Rhythm Figure 4) 4x

(Play Rhythm Figure 2)
I think I'll make him eat the ground
I think that I will turn around and notice the wind blowing tops of trees
I'll see the way the world begins to need color everywhere
And I'll realize how small I really am

(Play Rhythm Figure 3)
Cause I'm through being cool
And he keeps telling everyone about me
Like how I'm such a fool and that I'm so deceptive

  {Rhythm Figure 5}
E-------------------------------------------------------
B-------------------------------------------------------
G-------------------------------------------------------
D-8-----------------------------------------------------
A-8-(just-play-this-Bb-for-a-little-while)--------------
E-6-----------------------------------------------------

(Play Rhythm Figure 5)
And then I'll spin right back around and say

{Rhythm Figure 6}
E-------------------------------------------------------------------
B-------------------------------------------------------------------
G-8--8--8-8-8--8--8-8-----------------------------------------------
D-8--8--8-8-8--8--8-8--5--5--5-5-5--5--5-5--8--8--8-8-8--8--8-8-----
A-6--6--6-6-6--6--6-6--5--5--5-5-5--5--5-5--8--8--8-8-8--8--8-8-----
E----------------------3--3--3-3-3--3--3-3--6--6--6-6-6--6--6-6-----

E-------------------------------------------------------------------
B-------------------------------------------------------------------
G-8--8--8-8-8--8--8-8-----------------------------------------------
D-8--8--8-8-8--8--8-8--5--5--5-5-5--5--5-5--3--3--3-3-3--3--3-3-----
A-6--6--6-6-6--6--6-6--5--5--5-5-5--5--5-5--3--3--3-3-3--3--3-3-----
E----------------------3--3--3-3-3--3--3-3--1--1--1-1-1--1--1-1-----

E-------------------------------------------------------------------
B-------------------------------------------------------------------
G-8--8--8-8-8--8--8-8-----------------------------------------------
D-8--8--8-8-8--8--8-8--5--5--5-5-5--5--5-5--8--8--8-8-8--8--8-8-----
A-6--6--6-6-6--6--6-6--5--5--5-5-5--5--5-5--8--8--8-8-8--8--8-8-----
E----------------------3--3--3-3-3--3--3-3--6--6--6-6-6--6--6-6-----

E----------------------------------------------------
B----------------------------------------------------
G-8-8-------5-5--3-3---------------------------------
D-8-8--8-8--5-5--3-3--3----3---3-5-5-5---5\----------
A-6-6--5-5--3-3--1-1--3----3---3-5-5-5---5\----------
E---------------------1----1---1-3-3-3---3\----------

(Play Rhythm Figure 6)
"Nick, why are you such a prick?
Why can't you just marvel in the hopes that make up this reality?
Your world is what you made it
And I don't want a part of it."
Comments