Saves The Day - Through Being Cool Chords & Tabs

 

Through Being Cool Chords & Tabs

Saves The Day Chords & Tabs

Version: 1 Type: Bass Tab 0 ratings
1 star 2 stars 3 stars 4 stars 5 stars
comments

Through Being Cool Bass Tab

THROUGH BEING COOL - Saves The Day


Blinklwl@aol.com

Intro
G----------------------------------------------------------
D-5--5--5-5--5-5--5-5-5-5-5--3--5--5--5-5--5-5--5-5-5-5-5--
A----------------------------------------------------------
E----------------------------------------------------------

Part 1
G-------------------------------------------------------
D-------------------------------------------------------
A-------------------------------------------------------
E-3--3---------------3-3---3-3-3---3-3-3--3-3-3---------

Part 2
G-----------------------------
D-----------------------------
A-3-3-3--3-3-3--6-6--6--------
E-----------------------------

Part 3
G-----------------------------
D-----------------------------
A-3-3-3--3-3-3--6-6-6--6-6-6--
E-----------------------------

Part 4
G----------------------------------------------------------------|
D----------------------------------------------------------------|
A------------------------3-3--3-3--3-3--3-3---6-6--6-6--6-6--6-6-|
E-6-6--6-6--6-6--6-6---------------------------------------------|
[ Tab from: http://www.guitartabs.cc/tabs/s/saves_the_day/through_being_cool_btab.html ]
G--------------------------
D--------------------------
A---------6----------------
E-6-6-6-----6-6-6----------

Part 5
G----------------------------------------------------------------------
D----------------------------------------------------------------------
A-6--6--6-6-6--6--6-6--------------------------------------------------
E---------------------------3--3--3-3-3--3--3-3--6--6--6-6-6--6--6-6---

G----------------------------------------------------------------------
D----------------------------------------------------------------------
A-6--6--6-6-6--6--6-6--------------------------------------------------
E---------------------------3--3--3-3-3--3--3-3--1--1--1-1-1--1--1-1---

G----------------------------------------------------------------------
D----------------------------------------------------------------------
A-6--6--6-6-6--6--6-6--------------------------------------------------
E---------------------------3--3--3-3-3--3--3-3--6--6--6-6-6--6--6-6---

G----------------------------------------------------
D----------------------------------------------------
A-6-6--5-5--3-3--------------------------------------
E---------------------1----1---1-3-3-3---3-----------
====
Comments