Saves The Day - This Is Not An Exit Chords & Tabs

 

This Is Not An Exit Chords & Tabs

Saves The Day Chords & Tabs

Version: 1 Type: Tab 0 ratings
1 star 2 stars 3 stars 4 stars 5 stars
comments

This Is Not An Exit Tab

Intro:
0:00 - 0:13
Played once
Gtr 1 & 2 Clean

Guitar 1
-|--------------------------------------------------------------------------|-
-|--------------------------------------------------------------------------|-
-|--------------------------------------------------------------------------|-
-|----0-2----------0-2----------0-2----------0-2----------------------------|-
-|--3------------3------------3------------3--------------------------------|-
-|--------------------------------------------------------------------------|-
                                                                              
Guitar 2
-|--------------------------------------------------------------------------|-
-|--------------------------------------------------------------------------|-
-|----------2------------2------------2-------------------------------------|-
-|--------3-2----------3-2----------3-2----------5---3----------------------|-
-|--------3-0----------3-0----------3-0----------5---3----------------------|-
-|--------1------------1------------1------------3---1----------------------|-
        

                                                                 
Verse 1:
0:14 - 0:43
Played twice
Gtr 1 Clean, Gtr 2 mild dist.


Guitar 1
-|--------------------------------------------------------------------------|-
-|--------------------------------------------------------------------------|-
-|--------------------------------------------------------------------------|-
-|----0-2----------0-2----------0-2----------0-2----------------------------|-
-|--3------------3------------3------------3--------------------------------|-
-|--------------------------------------------------------------------------|-
                                                                              
Guitar 2
-|--------------------------------------------------------------------------|-
-|--------------------------------------------------------------------------|-
-|----------2------------2------------2-------------------------------------|-
-|--------3-2----------3-2----------3-2----------5---3----------------------|-
-|--------3-0----------3-0----------3-0----------5---3----------------------|-
-|--------1------------1------------1------------3---1----------------------|-

Chorus 1:
0:44 - 0:56 
Played once
Gtr 1 mild dist.
Upstrokes

Guitar 2                                                                      
-|--------------------------------------------------------------------------|-
-|--------------------------------------------------------------------------|-
-|--5-----------------------------------------------------------------------|-
-|--5----7----3----5--------------------------------------------------------|-
-|--3----7----3----5--------------------------------------------------------|-
-|-------5----1----3--------------------------------------------------------|-
                                                                              
Verse 2 part one:
0:57 - 1:12
Played once
Gtr 1 Clean, Gtr 2 mild dist.


Guitar 1
-|--------------------------------------------------------------------------|-
-|--------------------------------------------------------------------------|-
-|--------------------------------------------------------------------------|-
-|----0-2----------0-2----------0-2----------0-2----------------------------|-
-|--3------------3------------3------------3--------------------------------|-
-|--------------------------------------------------------------------------|-
                                                                              
Guitar 2
-|--------------------------------------------------------------------------|-
-|--------------------------------------------------------------------------|-
-|----------2------------2------------2-------------------------------------|-
-|--------3-2----------3-2----------3-2----------5---3----------------------|-
-|--------3-0----------3-0----------3-0----------5---3----------------------|-
-|--------1------------1------------1------------3---1----------------------|-

Verse 2 part two:
1:13 - 1:26
Played once
Gtr 1 Clean, Gtr 2 mild dist.


Guitar 1
-|--------------------------------------------------------------------------|-
-|--------------------------------------------------------------------------|-
-|--------------------------------------------------------------------------|-
-|----0-2-5--------0-2-5--------0-2-5--------0-2-5--------------------------|-
-|--3------------3------------3------------3--------------------------------|-
-|--------------------------------------------------------------------------|-
                                                                              
Guitar 2
-|--------------------------------------------------------------------------|-
-|--------------------------------------------------------------------------|-
-|-----------2-2----------2-2----------2-2----------------------------------|-
-|---------3-2-2--------3-2-2--------3-2-2--------5---3---------------------|-
-|---------3-0-0--------3-0-0--------3-0-0--------5---3---------------------|-
-|---------1------------1------------1------------3---1---------------------|-

Chorus 2:
1:27 - 1:41 
Played once
Gtr 2 mild dist.
Mild pauses inbetween chords
[ Tab from: http://www.guitartabs.cc/tabs/s/saves_the_day/this_is_not_an_exit_tab.html ]
Guitar 2                                                                     
-|--------------------------------------------------------------------------|-
-|--------------------------------------------------------------------------|-
-|--5-5-5-5-----------------------------------------------------------------|-
-|--5-5-5-5---7-7-7-7---3-3-3-3---5-5-5-5-----------------------------------|-
-|--3-3-3-3---7-7-7-7---3-3-3-3---5-5-5-5-----------------------------------|-
-|------------5-5-5-5---1-1-1-1---3-3-3-3-----------------------------------|-

Bridge:
1:42 - 1:54
Played once
Gtr 2

-|-----------------------------------------------------------------------------
-|-----------------------------------------------------------------------------
-|-----------------------------------------------------------------------------
-|-7-7--2-2--3-3----3-3--5-5--7----7-7--2-2--3----5----------------------------
-|-7-7--2-2--3-3----3-3--5-5--7----7-7--2-2--3----5----------------------------
-|-5-5--0-0--1-1----1-1--3-3--5----5-5--0-0--1----3----------------------------
                                                                              

Verse 3 part one:
1:55 - 2:13
Played once
Gtr 1 Clean, Gtr 2 mild dist.


Guitar 1
-|--------------------------------------------------------------------------|-
-|--------------------------------------------------------------------------|-
-|--------------------------------------------------------------------------|-
-|-----------------0-2----------0-2----------0-2---------0-2----------------|-
-|---------------3------------3------------3-----------3--------------------|-
-|--------------------------------------------------------------------------|-
                                                                              
Guitar 2
-|--------------------------------------------------------------------------|-
-|--------------------------------------------------------------------------|-
-|-----------2------------2------------2-----------2------------------------|-
-|---------3-2----------3-2----------3-2---------3-2-----------------5---3--|-
-|---------3-0----------3-0----------3-0---------3-0-----------------5---3--|-
-|---------1------------1------------1-----------1-------------------3---1--|-

Verse 3 part two:
2:14 - 2:27
Played once
Gtr 1 Clean, Gtr 2 mild dist.


Guitar 1
-|--------------------------------------------------------------------------|-
-|--------------------------------------------------------------------------|-
-|--------------------------------------------------------------------------|-
-|----0-2----------0-2----------0-2----------0-2----------------------------|-
-|--3------------3------------3------------3--------------------------------|-
-|--------------------------------------------------------------------------|-
                                                                              
Guitar 2
-|--------------------------------------------------------------------------|-
-|--------------------------------------------------------------------------|-
-|----------2------------2------------2-------------------------------------|-
-|--------3-2----------3-2----------3-2----------5---3----------------------|-
-|--------3-0----------3-0----------3-0----------5---3----------------------|-
-|--------1------------1------------1------------3---1----------------------|-

Verse 3 part three:
2:28 - 2:42
Played once
Gtr 1 Clean, Gtr 2 mild dist.


Guitar 1
-|--------------------------------------------------------------------------|-
-|--------------------------------------------------------------------------|-
-|--------------------------------------------------------------------------|-
-|----0-2-5--------0-2-5--------0-2-5--------0-2-5--------------------------|-
-|--3------------3------------3------------3--------------------------------|-
-|--------------------------------------------------------------------------|-
                                                                              
Guitar 2
-|--------------------------------------------------------------------------|-
-|--------------------------------------------------------------------------|-
-|-----------2-2----------2-2----------2-2----------------------------------|-
-|---------3-2-2--------3-2-2--------3-2-2--------5---3---------------------|-
-|---------3-0-0--------3-0-0--------3-0-0--------5---3---------------------|-
-|---------1------------1------------1------------3---1---------------------|-

Chorus 3:
2:44 - 3:40
Played four times
Gtr 2 mild dist.
Mild pauses inbetween chords

Guitar 2                                                                     
-|--------------------------------------------------------------------------|-
-|--------------------------------------------------------------------------|-
-|--5-5-5-5-----------------------------------------------------------------|-
-|--5-5-5-5---7-7-7-7---3-3-3-3---5-5-5-5-----------------------------------|-
-|--3-3-3-3---7-7-7-7---3-3-3-3---5-5-5-5-----------------------------------|-
-|------------5-5-5-5---1-1-1-1---3-3-3-3-----------------------------------|-

Outro:

Guitar 2                                                                      
-|--------------------------------------------------------------------------|-
-|--------------------------------------------------------------------------|-
-|--5~-------------5~-------------------------------------------------------|-
-|--5~---7~---3~---5~-------------------------------------------------------|-
-|--3~---7~---3~---5~-------------------------------------------------------|-
-|-------5~---1~---3~-------------------------------------------------------|-
Comments