Saves The Day - This Is Not An Exit Chords & Tabs

 

This Is Not An Exit Chords & Tabs

Saves The Day Chords & Tabs

Version: 1 Type: Bass Tab

This Is Not An Exit Bass Tab

My Sweet Fracture
By Saves the Day
tabbed  by Adam

Verse 
G---------------------------------------------------------|
D----11----12---11----11----12---11-----11----12---11-----|
A-00----00----0----------------------99----99----9--------|
E------------------00----00----0--------------------------|

Usual ending                         variation:
G----6----7---6----6----7---6------------6----9---6----|
D-00---00---0---00---00---0-----------00---00---7------|
A------------------------------------------------------|
E------------------------------------------------------|
[ Tab from: http://www.guitartabs.cc/tabs/s/saves_the_day/this_is_not_an_exit_btab.html ]
Chorus
G|----------------------------------------------------------------|
D|----------------------------------------------------------------|
A|-2>-5>----/12---2>-5>----4-5-7>-7h9-7h9-7h9--2>-5>----5---------|
E|-------5>-------------5>---------------------------5>---5>------|

            1st time:                  2nd time:
G|----------------------------------------9----------|
D|------------6---9---6---------------6-9---9--------|
A|-2>-5>-7>-7---7---7---7---------7-9-------------0r-|
E|---------------------------------------------------|

Bridge:                 varition:                
G-----------------------------9-------------7-6----------------|
D----4>-2>------------4>----9---9--------4>-----7----6---------|
A-0>-------5>------0>----7>-------5>--0>----------7>---77-5--3r|
E----2>-0>-----------------------------------------------------|