Saves The Day - Third Engine Chords & Tabs

 

Third Engine Chords & Tabs

Saves The Day Chords & Tabs

Version: 1 Type: Bass Tab 0 ratings
1 star 2 stars 3 stars 4 stars 5 stars
comments

Third Engine Bass Tab

   
Ok,I used to play this with my band that i was in,its a tricky song for the whole band.
A lot of extra crap in it,little fills and things but heres the bass part. Eben plays
with his fingers but i always found this song easier with a pick,its up to you
standard tuning

INTRO
G--------------|
D--9--4-2------|
A-7--5-3-3-2-0-|
E--------------|

VERSE
G------------------------------|
D------------------------------|
A-------555555-333333333-3-2-0-|
E-000000-----------------------|

FILL 1
G---------------|
D---------------|
A---------------|
E-0/12-12-12-12-|
[ Tab from: http://www.guitartabs.cc/tabs/s/saves_the_day/third_engine_btab.html ]
CHORUS
G--------------------------------------------------------------------|
D--------------------------------------------------------------------|
A-----------555555555-5/7-33333333-5/7-333333333-0-2-0---------------|
E-3333333333------------------------------------------33333333333333-|

CHORUS FILL
G---------22------------|
D-00-22-44--55-44-22-00-|
A-----------------------|
E-----------------------|

BRIDGE/BASS SOLO
G---------------------------------------------------|
D--------------------------000000-0-2-0-------------|
A---------0-2-0-------0-2-0------------333333-3-2-0-|
E-00000000-----3333333------------------------------|

WITH GUITAR
G-------------------------------------------------------------|
D-------------------------------------------------------------|
A-----------3-2-0-----------3-2-0-5555555555-3-2-0-3333333333-|
E-0000000000-----33333333333----------------------------------|

END ON
G-----
D-----
A-----
E-2/7-

Easy once you get the hang on it,it's just a lot of improv,a lot of root and fifth,a lot of octaves
any questions or comments:
zinghigh89@yahoo.com
Comments