Saves The Day - The Way His Collar Falls Chords & Tabs

 

The Way His Collar Falls Chords & Tabs

Saves The Day Chords & Tabs

Version: 1 Type: Tab 0 ratings
1 star 2 stars 3 stars 4 stars 5 stars
comments

The Way His Collar Falls Tab

THE WAY HIS COLLAR FALLS - Saves The Day

*All chords written below are strummed throught the measure unless otherwise  
noted.

E--0----0----3----2-------0----------------------------------------|
B--1----0----3----3-------1----------------------------------------|
G--0----0----0----2-------0------------------------------7-7-4-----|
D--2----2----0----0-------2--------------------------4-5-------5---|
A--3----2----2----0-------3-------------------------5-----------5--|
E--0----0----3----x--(4x)-0-(2 triplets on C chord)--------------0-|
(into next E-minor chord)

Leif and I are on a train to NY...
E--0----3----2----0---------------0----3----2----2-|
B--0----3----3----1---------------0----3----3----3-|
G--0----0----2----0---------------0----0----2----2-|
D--2----0----0----2---------------2----0----0----0-|
A--2----2----0----3---------------2----2----0----0-|
E--0----3----x----0-(short rest)--0----3----x----x-|

His hair is sticking up a little in the front...
E--0----0----3----2--|
B--1----0----3----3--|
G--0----0----0----2--|
D--2----2----0----0--|
A--3----2----2----0--|
E--0----0----3----x--|(4x)
[ Tab from: http://www.guitartabs.cc/tabs/s/saves_the_day/the_way_his_collar_falls_tab.html ]
His glasses, the way he writes in purple pen...
E--0----2----0----3----0----2------33--------|
B--1----3----0----3----1----3------33--------|
G--0----2----0----0----0----2------44-5------|
D--2----0----2----0----2----0------55-5------|
A--3----0----2----2----3----0------55-3------|
E--0----x----0----3----0----x------33-3 (4x)-|

I know he's next to me, I feel his sweater here...
E--0----2----0----3--------2-----------|
B--1----3----0----3--------3-----------|
G--0----2----0----0--------2-----------|
D--2----0----2----0--------0-----------|
A--3----0----2----2--------0-----------|
E--0----x----0----3--------x(let ring)-|
I think I'll write you....back on the train...

SOLO:
E--------3--------3----------------------|
G----4--------4------------4-------------|
D-----------2---2---2--5--------4---4h54-|
A--3---3---3------------------5---5------|
E--------------------3---3---3-----------|

Played 5 1/2 times...last half strummed.
It is a little complicated but with some practice is actually pretty easy

The rest repeates all the stuff above...good luck, this song kicks major  
ass.

Tabbed by: Sean Morris   http://www.exit18.cjb.net
Comments