Saves The Day - Take Our Cars Now Chords & Tabs

 

Take Our Cars Now Chords & Tabs

Saves The Day Chords & Tabs

Version: 2 Type: Tab 0 ratings
1 star 2 stars 3 stars 4 stars 5 stars
comments

Take Our Cars Now Tab

----------------------------------------------------------
           TAKE OUR CARS NOW - Saves The Day
            --   --  --  ---   ---   --  --
         Created By White Guy - dbzuser@hotmail.com
----------------------------------------------------------

e------------------------------|
B--1-----1------------1--------|
G--0-h-2-0------0-h-2----------|
D------------2-3---------------|
A----------------------3-------|
E------------------------------|

e------------------------------|
B--1-----1-------------1-------|
G--0-h-2-0------0-h-2----------|
D------------2-3---------------|
A-----------------------0------|
E------------------------------|

e------------------------------|
B--1-----1------------1--------|
G--0-h-2-0------0-h-2----------|
D------------2-3---------------|
A----------------------3-------|
E------------------------------|
[ Tab from: http://www.guitartabs.cc/tabs/s/saves_the_day/take_our_cars_now_tab_ver_2.html ]
e------------------------------|
B--1-----1-------------1-------|
G--0-h-2-0------0-h-2----------|
D------------2-3---------------|
A-----------------------4------|
E------------------------------|

Play 4x
e-------------------------|
B-------------------------|
G--5----------------------|
D--5---5---3---3----------|
A--3---5---3---3----------|
E------3---1---1----------|


Play 4x
e-----------------------------------------------|
B-----------------------------------------------|
G-------------5-5-5-5---------------------------|
D--7-7-7-7----5-5-5-5----5-5-5-5----3-3-3-3-----|
A--7-7-7-7----3-3-3-3----5-5-5-5----3-3-3-3-----|
E--5-5-5-5---------------3-3-3-3----1-1-1-1-----|

Play 4x
e---------------------------------|
B---------------------------------|
G---------------------------------|
D----3-3-3-3-3-3---5-5-5-5-5-5----|
A----3-3-3-3-3-3---5-5-5-5-5-5----|
E----1-1-1-1-1-1---3-3-3-3-3-3----|


Play Softly 6x
e-------------------------|
B-------------------------|
G--5----------------------|
D--5---5---3---3----------|
A--3---5---3---3----------|
E------3---1---1----------|

Since i made this
If there are any problems or
you just want to whine and
say how stupid i am feel free to email me
dbzuser@hotmail.com
Comments