Saves The Day - Shoulder To The Wheel Chords & Tabs

 

Shoulder To The Wheel Chords & Tabs

Saves The Day Chords & Tabs

Version: 1 Type: Tab 0 ratings
1 star 2 stars 3 stars 4 stars 5 stars
comments

Shoulder To The Wheel Tab

this song is in drop d tuning..
intro/verse
e----------------------------------------------------------------------
b----------------------------------------------------------------------
g-7-------9--------------7--------------7--------------5---------------
d-7-(10x)-9-(3x)-9-------7-(3x)-5-------7--(3x)-3------5-(3x)-2--------
a-5-------7------9-(10x)-5------5-(10x)-5-------3-(5x)-3------2-(5x)---
d----------------9--------------5---------------3-------------2--------
listen to get the patern
[ Tab from: http://www.guitartabs.cc/tabs/s/saves_the_day/shoulder_to_the_wheel_tab.html ]
chorus
------------------------------------------------------------------
------------------------------------------------------------------
--7---------------7-----------------------------------------------
--7-(10x)-9-------7-(10x)-9-------pick slide-5-------7------------
--5-------9-(10x)-5-------9-(10x)------------5-(10x)-7-(10x)------
----------9---------------9------------------5-------7------------

--------------------------------------------------------
--------------------------------------------------------
---7----------------------------------------------------
---7-(figue ou he pattern)-9-------5------7-------------
---5-----------------------9-(10x)-5-(5x)-7-(5x)--------
---------------------------9-------5------7-------------
Comments