Saves The Day - Shoulder To The Wheel Right Chords & Tabs

 

Shoulder To The Wheel Right Chords & Tabs

Saves The Day Chords & Tabs

Version: 1 Type: Bass Tab 0 ratings
1 star 2 stars 3 stars 4 stars 5 stars
comments

Shoulder To The Wheel Right Bass Tab

   
Ok, ive seen a lot of tabs for this song but noone ever has the fills or the right
intro it seems. So i sat down an listened over and over and this is right! I play
it with my band and the bass really sounds great when you play all the right crap.
Standard 4 string tuning
Eben used a Music Man for this recording so if you want your bass and amp to sound
just like his, try turning down the bass,upping the mid,and leaving the treb a little
lower than half way.GOOD LUCK!

(INTRO)
G------------------------------------------------------------------|
D----------------77777777-6666666666-------------77777777-66666666-|
A-777777777777777-------------------7777777777777------------------|
E------------------------------------------------------------------|

G----------------------------------------------------------------------|
D--------------6-7-6--77777-77-66666--------------6-7-6-77777777-99999-|
A-6h7777-6h7777------7---------------6h7777-6h7777-----7---------------|
E----------------------------------------------------------------------|

(VERSE)
G----------------------------------------------|
D----------------------------------------------|
A----------------------4444444444-000000000----|
E-0000000000-2222222222--------------------5-7-|

(VERSE CONTINUED)
G----------------------------------------------------|
D----------------------------------------------------|
A-7777777777777--------------------------------------|
E--------------7777767777767-9999989999989-555555555-|
(FIRST FILL)
G-----------------------|
D-----------------------|
A-----------------------|
E-0-2/12-12-12-12-12-12-|

(CHORUS)
G------------------|
D------------------|
A--------0-444-222-|
E-0-0-2-2----------|
[ Tab from: http://www.guitartabs.cc/tabs/s/saves_the_day/shoulder_to_the_wheel_right_btab.html ]
(VERSE)
G----------------------------------------------|
D----------------------------------------------|
A----------------------4444444444-000000000----|
E-0000000000-2222222222--------------------5-7-|

(VERSE CONTINUED)
G----------------------------------------------------|
D----------------------------------------------------|
A-7777777777777--------------------------------------|
E--------------7777767777767-9999989999989-555555555-|

(SECOND FILL)
G-------------------|
D-7-6-4--7-9-7-9-7--|
A-------7---------7-|
E-------------------|

(CHORUS)
G------------------|
D------------------|
A--------0-444-222-|
E-0-0-2-2----------|

(CHORUS CONTINUED)
G---------------------------------|
D---------------------------------|
A---------------0000000-4444-2222-|
E-000000-2222222------------------|

(BRIDGE)
G---------------------------------|
D---------------------------------|
A---------------------------------|
E-0(RING)-0(RING)-O(RING)-O(RING)-|

(VERSE)
G----------------------------------------------|
D----------------------------------------------|
A----------------------4444444444-000000000----|
E-0000000000-2222222222--------------------5-7-|

(VERSE CONTINUED)
G----------------------------------------------------|
D----------------------------------------------------|
A-7777777777777--------------------------------------|
E--------------7777767777767-9999989999989-555555555-|

(FIRST FILL AGAIN)
G-----------------------|
D-----------------------|
A-----------------------|
E-0-2/12-12-12-12-12-12-|

(CHORUS)
G------------------|
D------------------|
A--------0-444-222-|
E-0-0-2-2----------|

(CHORUS/OUTRO)
G---------------------------------|
D---------------------------------|
A---------------0000000-4444-2222-|
E-000000-2222222------------------|

(END)
G----
D----
A-2/7
E----

STRUCTURE:
INTRO-X1
VERSE-X1
VERSE CON.-X1
FILL-X1
CHORUS-X4
VERSE-X1
VERSE CON.-X1
FILL-X1
CHORUS-X4
CHORUS CON.-X2
BRIDGE-X1
VERSE-X1
VERSE CON.-X1
FILL-X1
CHORUS-X2
CHORUS/OUTRO-X4
END-X1

OK GOOD LUCK,ANY QUESTIONS EMAIL ME
ZINGHIGH89@YAHOO.COM
Comments