Saves The Day - Sell My Old Clothes Im Off To Heaven Chords & Tabs

 

Sell My Old Clothes Im Off To Heaven Chords & Tabs

Saves The Day Chords & Tabs

Version: 1 Type: Tab 0 ratings
1 star 2 stars 3 stars 4 stars 5 stars
comments

Sell My Old Clothes Im Off To Heaven Tab

Tabbed by:Austin Formica
Email:The.Photo.Age@gmail.com
Tuning:Standard

This is one of Saves The Days best songs and a turning point for them back in 2001...IMO

All the Tabs i have found for this song are really bad...so i decided to tab it out
myself...i'd say its very accurate for a 1 guitar version of the song. Some parts are
hard to tab out so dont be shy to add some extra notes here and there.

Have Fun...email me if you have any questions.

     
PART1 ("There's a beautiful sky tonight and if.....") 
e|----------------------------------------------------|
B|-------------------(5)-x-(7)------------------------|
G|---5----5----4------5--x--7-------------------------|
D|---5----5----5------3--x--5-------------------------|
A|---3----x----2------3--x--5-------------------------|
E|--------5-------------------------------------------|

PART2 (chorus)("If I could only see you now for....") 
e|--0-------0-------------0---0---0---------0--0-----0-----------|
B|--1---1-------1p0-------3---3---3---1p0---1---------1----------|
G|--2-2---2---2----0------0--------------0--2---2------2---------|
D|--2---------------------0-----------------3-----3-------2------|
A|--0---------------(2)-2-2-2---22---2------3-------------2(x6)--|
E|--0----------------3--3-3-3---33----------x-------------0------|
                                                       -|PM|
 
PART2 (chorus) *continued* played only first time through the chorus.

("Just to ask what he's got that I don't have. Is it his brown eyes."} 

e|--0---0---0--------------0---0----0---------0-0----------------|
B|--1-----1-1--1-1p0-------3---3----3---1p0---1-1----------------|
G|--2---------------0------0---------------0--2-2--2-------------|
D|--2----------------------0------------------3-3---3--3-3-------|
A|--0----------------(2)-2-2-2---22---2-------3--------3-3-------|
E|--0-----------------3--3-3-3---33-----------x--------1-1-------|

PART 3 ("I know blue eyes get boring sometimes...") 
e|---------------------------------------------------------------|
B|---------------------------------------------------------------|
G|------55-44-00----55-44-00----55-44-00-----55-44-00------------|
D|---------------------------22-----------33---------------------|
A|---22----------00----------------------------------------------|
E|---------------------------------------------------------------|

Chord Played the 2nd measure the second time through ^^^
e|-------|
B|-5b----|
G|-------|
D|-------|
A|-3b----|
E|-0-----|

PART 2...  ("If I could only see you now for about an hour...)
e|--0-------0-------------0---0---0---------0--0-----0-----------|
B|--1---1-------1p0-------3---3---3---1p0---1---------1----------|
G|--2-2---2---2----0------0--------------0--2---2------2---------| x2
D|--2---------------------0-----------------3-----3-------2------|
A|--0---------------(2)-2-2-2---22---2------3-------------2(x6)--|
E|--0----------------3--3-3-3---33----------x-------------0------|
                                                       -|PM|
+

*ADD ON* TO PART 2 (Well i'll give you a thousand reasons...)
[ Tab from: http://www.guitartabs.cc/tabs/s/saves_the_day/sell_my_old_clothes_im_off_to_heaven_tab.html ]
e|--0----------0-----0-----------2--3--2--2--------------------|
B|--1----------1-----1-----------3--3--3--3----10---9--7-------|
G|--2----------0-----0-----------2--2--2--2----10--10--5-------|
D|--2-(x12?)---2(x1)-3(X12?)-----0--0--0--2----8----7--5-------|
A|--0----------2-----3-----------0--0--0--0--------------------|
E|--0----------0-----0-----------X--X--X--0--------------------|
  |      1      |       2      |    3       |    4       |
  STRUM      HIT    STRUM        STRUM(4)   STRUM HIT HIT


PART 4  (Like the one year of my life that I gave......) 
e|----------------------------------------|
B|-----------------(5)-(7)----------------|
G|--5---4---5---4---5---7-----------------|
D|--5---5---5---5---3---5-----------------|
A|--3---3---X---3---3---5-----------------|
E|------3---5-----------------------------|

ring out at the end of Part4 
e|--------|
B|--------|
G|-5b~----|
D|--------|
A|-3b~----|
E|--------|

(bass plays)(guitar rings out)
"wont you look at me once? And Please if youve got a minute

PART 3 (Enjoy this lonley sky with me...)
e|---------------------------------------------------------------|
B|---------------------------------------------------------------|
G|------55-44-00----55-44-00----55-44-00-----55-44-00------------|
D|---------------------------22-----------33---------------------|
A|---22----------00----------------------------------------------|
E|---------------------------------------------------------------|
     |HIT|last measure, right before ("...if we only let it!"
    e|-x--|
    B|-5--|
    G|-5--|
    D|-3--|
    A|-3--|
    E|-x--|


PART 2...  ("If I could only see you now for about an hour...)
e|--0-------0-------------0---0---0---------0--0-----0-----------|
B|--1---1-------1p0-------3---3---3---1p0---1---------1----------|
G|--2-2---2---2----0------0--------------0--2---2------2---------| x2
D|--2---------------------0-----------------3-----3-------2------|
A|--0---------------(2)-2-2-2---22---2------3-------------2(x6)--|
E|--0----------------3--3-3-3---33----------x-------------0------|
                                                       -|PM|
+

*ADD ON* TO PART 2 (Well i'll give you a thousand reasons...)

e|--0----------0-----0-----------2--3--2--2--------------------|
B|--1----------1-----1-----------3--3--3--3----10---9--7-------|
G|--2----------0-----0-----------2--2--2--2----10--10--5-------|
D|--2-(x12?)---2(x1)-3(X12?)-----0--0--0--2----8----7--5-------|
A|--0----------2-----3-----------0--0--0--0--------------------|
E|--0----------0-----0-----------X--X--X--0--------------------|
  |      1      |       2      |    3       |    4       |
  STRUM      HIT    STRUM        STRUM(4)   STRUM HIT HIT


PART 4  (Like the one year of my life that I gave......) 
e|----------------------------------------|
B|-----------------(5)-(7)----------------|
G|--5---4---5---4---5---7-----------------|
D|--5---5---5---5---3---5-----------------|
A|--3---3---X---3---3---5-----------------|
E|------3---5-----------------------------|


END ("...with you)
e|-x~--x\|
B|-5~--5\|
G|-5~--5\|
D|-3~--3\|
A|-3~--3\|
E|-x~--x\|

Comments