Saves The Day - Rocks Tonic Juice Magic Chords & Tabs

 

Rocks Tonic Juice Magic Chords & Tabs

Saves The Day Chords & Tabs

Version: 2 Type: Bass Tab 0 ratings
1 star 2 stars 3 stars 4 stars 5 stars
comments

Rocks Tonic Juice Magic Bass Tab

   
Saves The Day - Rocks Tonic Juice Magic

This tab is ENTIRELY correct, unlike the other versions of this song
out there which are in E. Anywho as usual, if you
need a song tabbed, or can't figure it out on your own, then:

Email me at ScorpDave@aol.com.

Standard Tuning E, A, D, G

(Guitar Intro)

Verse 1 (0:12)
G|--------------------------------------|
D|--------------------------------------| X2
A|33--------3444444443-------46666666663|
E|--11111111---------44444444-----------|

Bridge (0:26)
G|------------------------------------|
D|------------------------------------| X2
A|--------34-3-1--3--------34-3-1--3--|
E|11111111---------44444444-----------|

Verse 1[cont.] (0:39)
G|------------------------------------|
D|------------------------------------| X3
A|--------3444444443-------46666666663|
E|11111111---------44444444-----------|

Transition (0:58)
G|------------------------------0-1-3------|
D|-------------------------01---------333--| X1
A|33--------3444444443----4----------------|
E|--11111111---------44444-----------------|


Chorus (1:06)
G|----------------------------------=----|
D|--------------3333---------------------| X1
A|43-3--643-6666-------43-3-643-33-33-3--|
E|--6--3-----------------6---------------| 
[ Tab from: http://www.guitartabs.cc/tabs/s/saves_the_day/rocks_tonic_juice_magic_btab_ver_2.html ]
Chorus[cont.] (1:19)
G|---------------------------|
D|-------------3333----------| X1
A|43-3--643-6666------43-3-6-|
E|--6--3----------------6----| 

Verse 2 (1:30)
G|------------------------------------|
D|------------------------------------| X3
A|--------3444444443-------46666666663|
E|11111111---------44444444-----------|

Transition (1:50)
G|------------------------------0-1-3------|
D|-------------------------01---------333--| X1
A|33--------3444444443----4----------------|
E|--11111111---------44444-----------------|


Chorus (1:58)
G|----------------------------------=----|
D|--------------3333---------------------| X1
A|43-3--643-6666-------43-3-643-33-33-3--|
E|--6--3-----------------6---------------| 

Chorus[cont.] (2:11)
G|---------------------------|
D|-------------3333----------| X1
A|43-3--643-6666------43-3-6-|
E|--6--3----------------6----| 

[Note: The fill, but not very important to the song, hence it's optional.]

Fill (2:23) 
G|----|
D|5---|
A|-6--|
E|----|

[Note: Next verse traditionally played low, but it sounds mor rich an octave higher.)

Concluding Verse (2:26)
G|----------------66666666---------|
D|6666666655555555--------33331111-| x2
A|---------------------------------|
E|---------------------------------|

Bass Interlude (2:50)
G|------------------65--65-----------|
D|----------586-586---6---6----------| x2
A|-----6---6---6---4---4----3-363----|
E|4-868-868----------------4-6---1-3-|

Concluding Verse (3:15)
G|--------|
D|--------|
A|----34--|
E|11------|
Comments